Oops, an error
Loading. Please wait.

Falling Slowly tab

version 4
version 4

Whole song

18,340 views 3 this week
no commentswrite comment
1 2 3 4 5
x 14
add to favorites
×
Save as Personal and add changes to this tab that will be seen only by you. Learn more ›
×
You can save this tab as Personal to edit and correct it or add notes. All changes will be seen only by you. Learn more »
launch autoscroll
font size
0
reset
how to read this tab
guitar tuner
edit
Autoscroll
slow
fast
+/-
esc
set tempo
stop
Title: Falling Slowly
Artist: Kris Allen

Most of this is from an earlier version, but I made some big changes in the pre-chorus, 
I used a capo. I also changed a bit of the chords in the chorus. This is my first tab, 
yeah :)

Capo 2


Intro:

e---------------0--------------------------1----------0-----|
B--------3------------3-----------3-------------------------|
G-----0------0-----0-----0-----0-----0-------0-----------0--|
D-----------------------------------------------------------|
A--3--------------------------------------------------------|
E----------------------------1------------------------------|

e----------------0------------------------------------------|
B--------3------------3------1---------1------1------1------|
G-----0------0-----0-----0---------0-------0------0-----0---|
D-----------------------------------------------------------|
A--3--------------------------------------------------------|
E----------------------------1------------------------------|

Verse 1:
e---------------0--------------------------1----------0-----|
B--------3------------3-----------3-------------------------|
G-----0------0-----0-----0-----0-----0-------0-----------0--|
D-----------------------------------------------------------|
A--3--------------------------------------------------------|
E----------------------------1------------------------------|
   I   don’t  know   you,    but  I       want       you
e----------------0------------------------------------------|
B--------3------------3------1---------1------1------1------|
G-----0------0-----0-----0---------0-------0------0-----0---|
D-----------------------------------------------------------|
A--3--------------------------------------------------------|
E----------------------------1------------------------------|
   All  the more for that


e---------------0--------------------------1----------0-----|
B--------3------------3-----------3-------------------------|
G-----0------0-----0-----0-----0-----0-------0-----------0--|
D-----------------------------------------------------------|
A--3--------------------------------------------------------|
E----------------------------1------------------------------|
   Words fall through me,         always  fool         me
e----------------0------------------------------------------|
B--------3------------3------1---------1------1------1------|
G-----0------0-----0-----0---------0-------0------0-----0---|
D-----------------------------------------------------------|
A--3--------------------------------------------------------|
E----------------------------1------------------------------|
   And   I      can’t react


Pre-Chorus:

E--------------------------------------------------------|
B-------1----0-----0--------1----0------0----------------|
G-----2---2------0------2-----2------0-------------2-----|
D--------------0-------------------0---------------------|
A--0--------------------0----------------------0---------|
E--------------------------------------------------------|

   Games that never amount to more than they’re meant

E----------------------------1---1-1---1----1-1-1-1-1-1------|
B--1----0-----0--------------1---1-1---1----1-1-1-1-1-1------|
G----2------0----------0h2---2---2-2---2----2-2-2-2-2-2------|
D---------0------------------3---3-3---3----3-3-3-3-3-3------|
A------------------------------------------------------------|
E------------------------------------------------------------|

  Will play themselves out


Chorus:
C
Take this sinking
Am
Boat and point it
F
Home we’ve still got time
C
Raise your hopeful
Am
Voice you had a
F                  G
Choice you make it now

Verse 2:
e---------------0--------------------------1----------0-----|
B--------3------------3-----------3-------------------------|
G-----0------0-----0-----0-----0-----0-------0-----------0--|
D-----------------------------------------------------------|
A--3--------------------------------------------------------|
E----------------------------1------------------------------|
  Falling      slowly,       eyes that   know           me
e----------------0------------------------------------------|
B--------3------------3------1---------1------1------1------|
G-----0------0-----0-----0---------0-------0------0-----0---|
D-----------------------------------------------------------|
A--3--------------------------------------------------------|
E----------------------------1------------------------------|
   And  I can’t go  back
e---------------0--------------------------1----------0-----|
B--------3------------3-----------3-------------------------|
G-----0------0-----0-----0-----0-----0-------0-----------0--|
D-----------------------------------------------------------|
A--3--------------------------------------------------------|
E----------------------------1------------------------------|
   And moods that take me,   and     erase            me
e----------------0------------------------------------------|
B--------3------------3------1---------1------1------1------|
G-----0------0-----0-----0---------0-------0------0-----0---|
D-----------------------------------------------------------|
A--3--------------------------------------------------------|
E----------------------------1------------------------------|
   And I’m painted  black

Pre-Chorus:

E--------------------------------------------------------|
B-------1----0-----0--------1----0------0----------------|
G-----2---2------0------2-----2------0-------------2-----|
D--------------0-------------------0---------------------|
A--0--------------------0----------------------0---------|
E--------------------------------------------------------|

   Well you have suffered enough And warred with yourself

E----------------------------1---1-1---1----1-1-1-1-1-1------|
B--1----0-----0--------------1---1-1---1----1-1-1-1-1-1------|
G----2------0----------0h2---2---2-2---2----2-2-2-2-2-2------|
D---------0------------------3---3-3---3----3-3-3-3-3-3------|
A------------------------------------------------------------|
E------------------------------------------------------------|

  It’s time that you won    (ohh...)   (ohh...)


Chorus:
C
Take this sinking
Am
Boat and point it
F
Home we’ve still got time
C
Raise your hopeful
Am
Voice you had a
F                  G
Choice you make it now

C
Falling  slowly,
Am
sing your  melody
F                                       G
I’ll  sing   along

            
            
Suggest correction
Creating personal tab
Creating personal tab
You can edit any tab online and save it as your Personal.

You can edit, replace or remove any tab part or add personal notes – all changes will be seen only by you.

Personal tabs can be accessed anytime from any device, even offline.
Learn more »
comments
print report bad tab
guest
Wanna post a correction for this tab? Suggest correction