Oops, an error
Loading. Please wait.

Heartless Chords

version 3
version 3

Whole song

9,634 views 6 this week
no commentswrite comment
1 2 3 4 5
please rate
add to favorites
launch autoscroll
font size
0
reset
transpose
0
reset
display chords
guitar tuner
Autoscroll
slow
fast
+/-
esc
set tempo
stop
Help us to improve Ultimate-Guitar.com Take our survey!
×
Author
Difficulty
novice
The song played live on american idol top 3. 
With capo on first fret.

Verse/Chorus:

E:-------------|
B:-------7--6--|
G:-6--3--6--8--|
D:-6--4--8--7--|
A:-x--4--6--8--|
e:-6--2--------|

Bridge:

E:-------------|
B:-------7--6--|
G:-3--6--6--8--|
D:-4--6--8--7--|
A:-4--x--6--8--|
e:-2--6--------|

That's it.

Tabbed by: Thomas Thyregod
Suggest correction
Give kudos to tab author, rate the tab!
1 2 3 4 5
comments
print report bad tab
guest
You may want to rate the tab now too:
select rating
Wanna post a correction for this tab? Suggest correction