Oops, an error
Loading. Please wait.

Braw Sailin On The Sea Chords

3,416 views 3 this week
no commentswrite comment
1 2 3 4 5
3 more votes to show rating
add to favorites
launch autoscroll
font size
0
reset
transpose
0
reset
display chords
guitar tuner
Autoscroll
slow
fast
+/-
esc
set tempo
stop
Help us to improve Ultimate-Guitar.com Take our survey!
×
Author
(This is my first tab so corrections are welcome)
Kris Drever ususally uses double dropped D tuning for most of his songs but
this is tabbed for standard tuning (EADGBE) and i think sounds pretty good when 
played with the record.

Capo on fret 3
 Intro

E-------------------------------------------------------------------------|
A-------------------------------------------------------------------------|
D-------------------------------------------------------------------------|
G --2------------- --2------------- --2----------------------2-2-2--------|
B ----3----------- ----3----------- ----3----------3-2-3-2-0-------0-2-3--|
e ------0-2-3-2--- ------0-2-3-0--- ------0-2-3-2-0-----------------------|

  --2-------------------|
  ----3-----------3-2-3-|
  ------0-2-3-2-0-------|

D                        A
There cam' a letter yestreen
D                        A
The Ship man sailed the morn
Bm      G        F#m    G
Alas, Cried the bonny lass
D         A      G
That ever I was born

CHORUS
D                             A
And it's Braw sailing on the sea
D                         A
When wind and weather's fair
Bm              G     F#m        G
It's better tae be in my love's arms
D    A           G
Oh, gin I were there

chords for verses and chorus are the same from here

(link to Artist label)
http://www.navigatorrecords.co.uk/
Suggest correction
Give kudos to tab author, rate the tab!
1 2 3 4 5
comments
print report bad tab
guest
You may want to rate the tab now too:
select rating
Wanna post a correction for this tab? Suggest correction