Oops, an error
Loading. Please wait.

Poor Mans Son Tab

version 1
version 1

Whole song

999 views 3 this week
no commentswrite comment
1 2 3 4 5
please rate
add to favorites
launch autoscroll
font size
0
reset
how to read this tab
guitar tuner
Tab Pro tools
  • play this tab
  • loop segment
  • change instrument
  • show fretboard
  • metronome
Autoscroll
slow
fast
+/-
esc
set tempo
stop
Difficulty
intermediate
                    Dm F
---------------------1-1--|
---------------------3-1--|
---------------------2-2--|   x2
-----------3---------0-3--|
-------3-5---5------------|
-5-3-5--------------------|

                 A# Dm A# Gm Dm
-----------------1--1--1---3--1-|
-----------------3--3--3---3--3-|
-----------------3--2--3---0--2-|
------------3----3--0--3---0--0-|
--------3-5---1--1-----1---1----|
--5-3-5--------------------3----|

Dm	        	F
Advert hangs upon the wall

Dm		      F
"workers needed apply below",

                 A#                   Dm
You don't need a job if you've got a gun

              A#    (Gm)      Dm
and there's a bank across the road,

Dm	              F
My Ma hangs around my neck,
                Dm		F
I point the pistol and tell the clerk,
              A#                         Dm
I'm not a bad man I'm just a poor man's son,
               A#    (Gm)             Dm
So give me the money and nobody gets hurt,

                    Dm F
---------------------1-1--|
---------------------3-1--|
---------------------2-2--|   x2
-----------3---------0-3--|
-------3-5---5------------|
-5-3-5--------------------|

                 A# Dm A# Gm Dm
-----------------1--1--1---3--1-|
-----------------3--3--3---3--3-|
-----------------3--2--3---0--2-|
------------3----3--0--3---0--0-|
--------3-5---1--1-----1---1----|
--5-3-5--------------------3----|





Dm				     F
The deputy sheriff points his gun at me,
         Dm                 F
You'll never learn will you McGee,
             A#                           Dm
I'm starting to think that you like that cell,
            A#     Gm        Dm
And you can't wait to go to hell,

        F                A#           F
Hey, Ma  it's me and I'm not married yet,
                                   A#                 F
I'm sorry I'm going away again for another five year stretch,
A#				     Dm
I'll make good someday you wait and see,
           A#   Gm        Dm
I love you Ma, say hi to Billy.

(Repeat last verse)
           A#   Gm        Dm
I love you Ma say hi to Billy.
comments
We did not receive enough feedback on this tab! Please rate:
print report bad tab
1 2 3 4 5
I want to post or [tab]
guest
You may want to rate the tab now too:
select rating
Please do not post tabs as comments. Select "correction" instead!