Oops, an error
Loading. Please wait.

In My Heart chords

by Krishna
22 views 3 this week
no commentswrite comment
1 2 3 4 5
3 more votes to show rating
add to favorites
×
Save as Personal and add changes to this tab that will be seen only by you. Learn more ›
×
You can save this tab as Personal to edit and correct it or add notes. All changes will be seen only by you. Learn more »
launch autoscroll
font size
0
reset
transpose
0
reset
simplify chords
display chords
guitar tuner
edit
Autoscroll
slow
fast
+/-
esc
set tempo
stop
About this tab version
This condensed arrangement is intended for one person to play and sing on acoustic guitar. Listen to song for bridge and outro sections. Was this info helpful? Yes No
Strumming
There is no strumming pattern for this song yet. and get +5 IQ
Krishna - In My Heart
Bobby Spaceman Jr.: Savior
Standard tuning
Capo 2nd Fret

[Intro]
  Gsus2 Cmaj2 Dsus4    Emin7    Cmaj2          D7sus2
e|--3-----3----3---3------3----------------------0-0--|
B|--3-----3----3---3------3----------------------5-3--|
G|--0-----0----2---0------0------------0---------0-0--|
D|--0-----2----0---0------2--------0h2-----------4-4--|
A|----2-3-----------------2-0h2-3--------3-3/5-5-5-5--|
E|3----------------3-2-0------------------------------|

[Verse]
Gsus2  Cmaj2 Dsus4    Gsus2           Emin7
Baby, baby, Let me hold you a little bit longer
Cmaj2           D7sus2
And everythings okay.
Gsus2  Cmaj2 Dsus4   Gsus2            Emin7
Darling dear, my problems seem to melt away
Cmaj2             D7sus2
Whenever you are near.

[Chorus]
Cmaj2          Emin7 Cmaj2           Emin7
So if you ever go, and it hurts me so
Cmaj2         Emin7  A7
You'll always be, Right here with me
Cmaj2     D
Forever, in my heart.

[Intro/Interlude]

[Verse]
Gsus2  Cmaj2 Dsus4   Gsus2            Emin7
Seasons change, but one thing seems to stays the same
Cmaj2           D7sus2
The way you make me feel.
Gsus2  Cmaj2 Dsus4   Gsus2            Emin7
I need you. Distance makes my heart grow cold.
Cmaj2           D7sus2
Don't know what else to do.

[Chorus]
Cmaj2          Emin7 Cmaj2           Emin7
But if I ever go, and it hurts you so
Cmaj2         Emin7  A7
You'll always be, Right here with me
Cmaj2     Dsus4
Forever, in my heart.

[Bridge]
  Cmaj2              Emin7
e|-0-0--0-0--0-0--0-0--0-0--0-0--0-0--0-0--|
B|-3-3--3-3--3-3--3-3--3-3--3-3--3-3--3-3--|
G|-0-0--0-0--0-0--0-0--0-0--0-0--0-0--0-0--|
D|-2-2--2-2--2-2--2-2--2-2--2-2--2-2--2-2--|
A|-3-3--3-3--3-3--3-3--2-2--2-2--2-2--2-2--|
E|---------------------0-0--0-0--0-0--0-0--|

e|-0-0--0-0--0-0--0-0--0-0--0-0--0-0--0-0--|
B|-3-0--3-0--3-0--3-0--3-0--3-0--3-0--3-0--|
G|-0-0--0-0--0-0--0-0--0-0--0-0--0-0--0-0--|
D|-2-2--2-2--2-2--2-2--2-2--2-2--2-2--2-2--|
A|-3-3--3-3--3-3--3-3--2-2--2-2--2-2--2-2--|
E|---------------------0-0--0-0--0-0--0-0--|

e|-0-0--0-0--0-0--0-0--0-0--0-0--0-0--0-0--|
B|-3-3--3-3--3-3--3-3--3-3--3-3--3-3--3-3--|
G|-0-0--2-2--0-0--0-0--0-0--0-0--0-0--0-0--|
D|-x-x--x-x--x-x--4-4--2-2--4-4--5-5--0-0--|
A|-3-3--3-3--3-3--3-3--2-2--2-2--2-2--2-2--|
E|---------------------0-0--0-0--0-0--0-0--|

[Outro]
 Gsus2     Cmaj2     Emin7     Cmaj2 Dsus4
 Gsus2     Cmaj2     Emin7     Cmaj2 Dsus4
 Gsus2     Cmaj2     Emin7     Cmaj2 Dsus4
 Aaaaaaaaaaaaaaaaaaaaaaaaaah Aaaaaaaaaaaaaah
 Gsus2     Cmaj2     Emin7     Cmaj2 Dsus4
 Aaaaaaaaaaaaaaaaaaaaaaaaaah Aaaaaaaaaaaaaah
 Gsus2     Cmaj2     Emin7     Cmaj2 Dsus4
 Ooooooooooooooooooooooooooo Ooooooooooooooo
 Gsus2     Cmaj2     Emin7     Cmaj2 Dsus4
 Ooooooooooooooooooooooooooo Ooooooooooooooo

e|-0-0--0-0--0-0--0-0--0-0--0-0--0-0--0-0--|
B|-3-0--3-0--3-0--3-0--3-0--3-0--3-0--3-0--|
G|-0-0--0-0--0-0--0-0--0-0--0-0--0-0--0-0--|
D|-2-2--2-2--2-2--2-2--2-2--2-2--2-2--2-2--|
A|-3-3--3-3--3-3--3-3--2-2--2-2--2-2--2-2--|
E|---------------------0-0--0-0--0-0--0-0--|

e|-0-0--0-0--0-0--0-0--0-0--0-0--0-0--0-0--0~|
B|-3-0--3-0--3-0--3-0--3-0--3-0--3-0--3-0--3~|
G|-0-0--0-0--0-0--0-0--0-0--0-0--2-2--2-2--0~|
D|-2-2--2-2--2-2--2-2--2-2--2-2--0-0--0-0--2~|
A|-3-3--3-3--3-3--3-3--2-2--2-2------------3~|
E|---------------------0-0--0-0--------------|



************************************

| h  Hammer-on
| /  Slide up
| x  Dead note
| ~  Vibrato

************************************

            
            
Suggest correction
Creating personal tab
Creating personal tab
You can edit any tab online and save it as your Personal.

You can edit, replace or remove any tab part or add personal notes – all changes will be seen only by you.

Personal tabs can be accessed anytime from any device, even offline.
Learn more »
Give kudos to tab author, rate the tab!
1 2 3 4 5
comments
print report bad tab
guest
You may want to rate the tab now too:
select rating
Wanna post a correction for this tab? Suggest correction