Oops, an error
Loading. Please wait.

Always Tab

3,504 views 3 this week
no commentswrite comment
1 2 3 4 5
1 last vote to show rating
add to favorites
launch autoscroll
font size
0
reset
how to read this tab
guitar tuner
Autoscroll
slow
fast
+/-
esc
set tempo
stop
Help us to improve Ultimate-Guitar.com Take our survey!
×
Difficulty
novice
 INTRO
  ELECTRIC 1
E|-------------------  -----|
B|--10-12/14---------  -----|
G|-----------9-99h11-  --9\-|
D|-------------------  -----|
A|-------------------  -----|
E|-------------------  -----|

VERSE

ELECTRIC 2
E|---------|
B|---------|
G|-8-----4-|
D|-x-----x-| (play as you see fit)
A|-6-----2-|
E|---------|

CHORUS

  ELECTRIC 1
E|-11--11-                                  --9----9-|
B|---12---                                  ----12---|
G|--------                                  ---------|
D|--------  (play until you here the change ---------|
A|--------                                  ---------|
E|--------                                  ---------|  


  ELECTRIC 2
E|-----------------------|
B|-----------------------|
G|-4-6-8-9868-8-9868-4-6-|
D|-x-x-x-xxxx-x-xxxx-x-x-|
A|-2-4-6-7646-6-7646-2-4-|
E|-----------------------|


BRIDGE

E|----------------------|
B|----------------------|
G|----------------------|
D|-14-13-9---14-13-9-11-|
A|---------9------------|
E|----------------------|

This is a slightly heavier version of the actual song, you can mess around with it as you like :)
Suggest correction
Give kudos to tab author, rate the tab!
1 2 3 4 5
comments
print report bad tab
guest
You may want to rate the tab now too:
select rating
Wanna post a correction for this tab? Suggest correction