Oops, an error
Loading. Please wait.

Kingdom Bass Tab

710 views 1 this week
no commentswrite comment
1 2 3 4 5
please rate
add to favorites
launch autoscroll
font size
0
reset
guitar tuner
Autoscroll
slow
fast
+/-
esc
set tempo
stop
Help us to improve Ultimate-Guitar.com Take our survey!
×
Contributor
Difficulty
intermediate
"Kingdom" Bass Tab
by Kristian Stanfill
tabbed by Justin of Moonspell Beach myspace.com/moonspellbeach
I don't normally tab bass.. but let's give a go lads...
i KNOW it's way off... just have fun with it.
pretty sure bass is in drop d... but just do it anyways...

Tuning:
INTRO
G|---------------------------------------------------------------------------|
D|---------------------------------------------------------------------------|
A|----------1-1-5-5------------------------1-1-5-5---------------------------|
E|--7/3-3-3-----------6-6-6-5-5-1/3--3-3-3---------6-6-6-8-8-4-4-------------| times two

VERSE
G|---------------------------------------------------------------------------|
D|---------------------------------------------------------------------------|
A|---------------------------------------------------------------------------|
E|----3 ring out-------------------------------------------------------------|

PRECHORUS                       HITS
G|--------------------------------------------------------------|
D|--------------------------------------------------------------|
A|------------------3-3-3-3-5-5-5-5-repeat-(x4)----1-1---3-3-3--|
E|--1-3-3-1-3-3-1-3---------------------------------------------|

CHORUS strum steady
G|--------------------------------------------|
D|--------------------------------------------|
A|--------------------------------------------|
E|-6------------11------------13---11---------| REPEAT ONCE

G|---------------------------------------------------------------------------|
D|---------------------------------------------------------------------------|
A|---------------------------------------------------------------------------|
E|-6--------8--------3--------11---------------6-------13------slide to intro|

REPEAT INTRO once

VERSE 2            repeat this until prechorus 2
G|---------------|-----------------------------------------------------------|
D|---------------|-----------------------------------------------------------|
A|---------------|-----------------------------------------------------------|
E|--3 ring out --|-11h13-13-13p11--1-3-3-1-3-3-1-3---------------------------|

PRECHORUS 2
G|-------------------------------------------------------------------------|
D|-------------------------------------------------------------------------|
A|--------------------------------------------------1-1--3-3-3-------------|
E|--1-3-3-1-3-3-1-3- repeat whole time til hits ---------------------------|

REPEAT CHORUS

strum steady
BRIDGE "I am you are we are..."   DON'T COME IN TIL SHOUTS!strum steady
G|---------------------------------------------------------------------------|
D|---------------------------------------------------------------------------|
A|---------------------------------------------------------------------------|
E|---10----11----12----11--  then loud part---3 just build it...
                    throw in some 1's if you want for accent

REPEAT CHORUS x2 but only first half. then cut out with HITS.

THEN PLAY INTRO TIL END.

| /  slide up
| \  slide down
| h  hammer-on
| p  pull-off
| ~  vibrato
| +  harmonic
| x  Mute note
===============================================================================
comments
We did not receive enough feedback on this tab! Please rate:
print report bad tab
1 2 3 4 5
I want to post or [tab]
guest
You may want to rate the tab now too:
select rating
Please do not post tabs as comments. Select "correction" instead!