Oops, an error
Loading. Please wait.

Not Ashamed Tab

version 1
version 1

Whole song

Interactive

7,497 views 9 this week
1 commentread comment
1 2 3 4 5
accurate
x 4
add to favorites
launch autoscroll
font size
0
reset
how to read this tab
guitar tuner
Tab Pro tools
  • play this tab
  • loop segment
  • change instrument
  • show fretboard
  • metronome
×
Best way to learn
"Not Ashamed"
Autoscroll
slow
fast
+/-
esc
set tempo
stop
Contributor
Difficulty
Capo
intermediate
1st fret
I love this song!! This is how I play it at church... This is my first tab.  Listen to 
song for strum pattern and picking patterns.

Tabbed by: aarongary606780
Email: aarongary606780@yahoo.com

Tuning:Standard

Capo 1

Intro

e|---------------------------------------------------------------------------|
B|--------5---5----7--5--5----5---7-5--5-5----5---5------7-------------------|
G|---------------------------------------------------------------------------|
D|---------------------------------------------------------------------------|
A|---------------------------------------------------------------------------|
E|---------------------------------------------------------------------------|     X2

Woahhhhhhh... I'm Not Ashamed....
e|---------------------------------------------------------------------------|
B|-------10--------10-------10------10-------10------10------10--------------|
G|-------9---------9--------11------9------9-----9-----11--------------------|
D|---------------------------------------------------------------------------|
A|---------------------------------------------------------------------------|
E|---------------------------------------------------------------------------|

1st half of the verse the lead doen't play

chords: Bm, G, D, A

2nd half of verse

e|---------10----------7---------14------------------------------------------|
B|---------------------------------------------------------------------------|
G|---------------------------------------------------------------------------|
D|---------------------------------------------------------------------------|
A|---------------------------------------------------------------------------|
E|---------------------------------------------------------------------------|

Then slide of low E from like 14 to 1

e|-------------------------------------------------------------------------------|
B|-------------------------------------------------------------------------------|
G|-------------------------------------------------------------------------------|
D|-------------------------------------------------------------------------------|
A|-2-2-2-2-2-2-2-2-----------------5-5-5-5-5-5-5-5-------------------------------|
E|-----------------3-3-3-3-3-3-3-3-----------------5-5-5-5-5-5-5-5-----------X2--|

Chorus

e|---------------------------------------------------------------------------|
B|---------------------------------------------------------------------------|
G|----7-7-7-7-7-7-7-7---4-4-4-4----------------------7--7--------4--4--------|
D|----7-7-7-7-7-7-7-7---4-4-4-4--5-5-5-5-------------7--7--7--7--4--4--5--5--|
A|----5-5-5-5-5-5-5-5---2-2-2-2--5-5-5-5-------------5--5--7--7--2--2--5--5--|
E|-------------------------------3-3-3-3----X3-Then--------5--5--------3--3--|

Then play intro again

Verse 2: same as verse 1

Chorus again

Break before bridge

e|--------------------------------------------------------------------------------|
B|--------------------------------------------------------------------------------|
G|-----------4-----7--------------------------------------------------------------|
D|-----5-----4-----7--------------------------------------------------------------|
A|-----5-----2-----5--------------------------------------------------------------|
E|-----3--------------X2----------------------------------------------------------|

Bridge:

e|---------------------------------------------------------------------------|
B|---------------------------------------------------------------------------|
G|---------------------------------------------------------------------------|
D|---------------------------------------------------------------------------|
A|-------------------------------------2-2-2-2-2-2-2-2-5-5-5-5-5-5-5-5-------|
E|-----3-3-3-3-3-3-3-3-3-3-3-3-3-3-3-3-----------------------------------X2--|
x x x x x x x x x x x x x x x x x x x x x x x x x x x x x x x x

Then

e|---------------------------------------------------------------------------|
B|---------------------------------------------------------------------------|
G|----5-5-5-5-5-5-5-5--------------------------------------------------------|
D|----5-5-5-5-5-5-5-5--------------------------------------------------------|
A|----7-7-7-7-7-7-7-7--------------------------------------------------------|
E|---------------------------------------------------------------------------|

Then chorus at end no guitars just drums. then same thing for chorus after that and the 
outro is the same as the intro. I hope this tab has helped you. If you have any 
questions or comments please ask. :)

************************************

| /   slide up
| \   slide down
| h   hammer-on
| p   pull-off
| ~   vibrato
| +   harmonic
| x   Mute note
| b   Bend
| pb  Pre-bend
| br  Bend release
| pbr Pre-bend release
| brb Bend release bend

************************************
comments
print report bad tab
1 comment total.
0 reply
jarebearftw wrote on January 6 2014, 03:20 pm

doesnt need to be capoed for a tab like this if there are no open chords!

I want to post or [tab]
guest
You may want to rate the tab now too:
select rating
Please do not post tabs as comments. Select "correction" instead!