Oops, an error
Loading. Please wait.

Goodbye Tab

1,534 views 1 this week
no commentswrite comment
1 2 3 4 5
please rate
add to favorites
launch autoscroll
font size
0
reset
how to read this tab
guitar tuner
Tab Pro tools
  • play this tab
  • loop segment
  • change instrument
  • show fretboard
  • metronome
×
Best way to learn
"Goodbye"
Autoscroll
slow
fast
+/-
esc
set tempo
stop
Contributor
Difficulty
novice
Tuning: Standard
Kristinia Debarge "Goodbye"

Intro: Is played throughout song.
E|---------------------------------------------------------------------|
B|---------------------------------------------------------------------|
G|--6--6--6--8--9--9--13--11--8--8----6--------------------------------|
D|----------------------------------9----------------------------------|
A|---------------------------------------------------------------------|
E|---------------------------------------------------------------------|

E|---------------------------------------------------------------------|
B|---------------------------------------------------------------------|
G|---4--6--6--6--8--9--9--13--11--8--8----6----------------------------|
D|-6------------------------------------9------------------------------|
A|---------------------------------------------------------------------|
E|---------------------------------------------------------------------|

Am: E------   C: E------   G: E------  D: E------  Em: E------|
    B------      B------      B------     B------      B------|
    G------      G-5----      G------     G-7----      G------|
    D-7----      D-5----      D-5----     D-7----      D-2----|
    A-7----      A-3----      A-5----     A-5----      A-2----|
    E-5----      E------      E-3----     E------      E-0----|


Am                       C
Am I supposed to put my life on hold
             G
Because you don't know how to act
         D
And you don't know where your life is going
Am                    C                          G
Am I supposed to be torn apart, broken-hearted, in a corner crying?
D
Pardon me if I don't show it
Am            C                  Em
I don't care if I never see you again
          D
I'll be alright
Am               C                        G
Take this final piece of advice and get yourself together,
                      G
But either way baby, I'm gone

Chorus:
Am               C
I'm so over it, I've been there and back
G                           G                     D
Changed all my numbers and just in case you're wondering
Am             C                   G
I got that new I'm a single girl swag
                G*               D
Got me with my girls and we're singin' it

Am            C
Na na na na, na na na
G       G      Am
Hey hey hey, Goodbye

Am            C
Na na na na, na na na
G       G      Am
Hey hey hey, Goodbye
comments
We did not receive enough feedback on this tab! Please rate:
print report bad tab
1 2 3 4 5
I want to post or [tab]
guest
You may want to rate the tab now too:
select rating
Please do not post tabs as comments. Select "correction" instead!