Oops, an error
Loading. Please wait.

Mittwoch bass

82 views 1 this week
no commentswrite comment
1 2 3 4 5
3 more votes to show rating
add to favorites
×
Save as Personal and add changes to this tab that will be seen only by you. Learn more ›
×
You can save this tab as Personal to edit and correct it or add notes. All changes will be seen only by you. Learn more »
launch autoscroll
font size
0
reset
guitar tuner
edit
Autoscroll
slow
fast
+/-
esc
set tempo
stop
Title: Mittwoch
Artist: Kristofer Dahl
Tabber: ShadowAS1, the 'rough' lines come from 9BeForewarned7 (YouTube)

Tuning: Drop D

The / means you slide up to the 0 on te E string from nearly the bottom of the frets

Intro:

G]-------------|
D]-------------|
A]-------------|
E]---0-0--0-0--|

G]---------------------------------|
D]---------------------------------|
A]------------0-1--1--0--0-0-0-----|   3X
E]-/0-0--0-3-------------------3---|

Verse:

G]--------------------------------------|
D]--------------------------------------|
A]--------------------------------------|  4X
E]--0-0-3-0-6-6-3---0-0-3-3-0-6-6-3-0---|

Fill:
G]---------------|
D]---------------|
A]---------------|  4X
E]5---6---7---8--|


G]-------------|
D]-------------|
A]-------------|
E]---0-0--0-0--|



Verse:

G]--------------------------------------|
D]--------------------------------------|
A]--------------------------------------|  3X
E]-/0-0-3-0-6-6-3-0---0-3-3-0-6-6-3-0---|

Fill:
G]---------------|
D]---------------|
A]---------------|  4X
E]5---6---7---8--|

Chorus:
G]---------------------------------|
D]---------------------------------|
A]------------0-1--1--0--0-0-0-----|   3X
E]--0-0--0-3-------------------3---|

Fill:
G]---------------|
D]---------------|
A]---------------|  4X
E]5---6---7---8--|

G]-------------|
D]-------------|
A]-------------|
E]---0-0--0-0--|


Verse:

G]--------------------------------------|
D]--------------------------------------|
A]--------------------------------------|  3X
E]-/0-0-3-0-6-6-3-0---0-3-3-0-6-6-3-0---|


Fill:
G]---------------|
D]---------------|
A]---------------|  4X
E]5---6---7---8--|

Chorus:

G]---------------------------------|
D]---------------------------------|
A]------------0-1--1--0--0-0-0-----|   3X
E]--0-0--0-3-------------------3---|

Fill:
G]---------------|
D]---------------|
A]---------------|  4X
E]5---6---7---8--|

Solo:

G]--------------------------------------|
D]--------------------------------------|
A]--------------------------------------|  4X
E]--0-0-3-0-6-6-3-0---0-3-3-0-6-6-3-0---|

There will be a verse now.. but that should not be played by the bass.. Start playing 
when you hear the Fill (Around 2:30)


Fill:
G]---------------|
D]---------------|
A]---------------|  4X
E]5---6---7---8--|

Chorus:

G]---------------------------------|
D]---------------------------------|
A]------------0-1--1--0--0-0-0-----|   3X
E]--0-0--0-3-------------------3---|

G]---------------|
D]---------------|
A]---------------|  4X
E]5---6---7---8--|


G]---------------------------------|
D]---------------------------------|
A]------------0-1--1--0--0-0-0-----|   3X
E]--0-0--0-3-------------------3---|

G]---------------|
D]---------------|
A]---------------|  4X
E]5---6---7---8--|


G]---------------------------------|
D]---------------------------------|
A]------------0-1--1--0--0-0-0-----|   3X
E]--0-0--0-3-------------------3---|

G]---------------|
D]---------------|
A]---------------|  4X
E]5---6---7---8--|


G]---------------------------------|
D]---------------------------------|
A]------------0-1--1--0--0-0-0-----|   3X
E]--0-0--0-3-------------------3---|

G]---------------|
D]---------------|
A]---------------|  4X
E]5---6---7---8--|

Outro:

G]--------|
D]--------|
A]--------|
E]--0--0--|
Suggest correction
Creating personal tab
Creating personal tab
You can edit any tab online and save it as your Personal.

You can edit, replace or remove any tab part or add personal notes – all changes will be seen only by you.

Personal tabs can be accessed anytime from any device, even offline.
Learn more »
Give kudos to tab author, rate the tab!
1 2 3 4 5
comments
print report bad tab
guest
You may want to rate the tab now too:
select rating
Wanna post a correction for this tab? Suggest correction