Oops, an error
Loading. Please wait.

1200 Sensaciones tab

by Kronos
44 views 1 this week
no commentswrite comment
1 2 3 4 5
3 more votes to show rating
add to favorites
×
Save as Personal and add changes to this tab that will be seen only by you. Learn more ›
×
You can save this tab as Personal to edit and correct it or add notes. All changes will be seen only by you. Learn more »
launch autoscroll
font size
0
reset
how to read this tab
guitar tuner
edit
Autoscroll
slow
fast
+/-
esc
set tempo
stop
Antes de comenzar la canción quiero enviar saludos
 a los integrantes de la banda Kronos, Jorge, David, etc.
 a todos los fans de este excelente grupo,
hay les va este tema que va dedicado a todas las niñas
lindas de Cali ¡Y que viva el Rock Caleño!


Intro: G# - E - G# - E

G#                 E                      G#    E
En tus ojos puedo ver mil doscientas sensaciones

G#               E                  G#   E
Te veo al amanecer entre rayos de colores

E                    F#                        G# G#
Todo el mundo a madrugar ya se prenden los motores
E                  F#         G#           E  G#          E
No me quiero levantar levantar, te quiero amar uuuuuuuuuuuuuu


G#                    E                      G#    E
En la mesa esta el café mientras en la calle vuelas
G#                  E                        G#   E
Yo no sé si no sirvió lo que enseñan en la escuela

E                    F#                        G# G#
Todo el mundo a madrugar ya se prenden los motores
E                    F#
Cuantos me quiero quedar para amar


Coro
G#         E           F#                  G#
Como vamos a perder el tiempo en tontas ilusiones
G#          E         F#                  G#    E
En tus ojos puedo ver mil doscientas sensaciones
G#        E
Para amar uo uooooooo


Guitarra


e---12-12-10-8-10--12-15-12-10-8-10h12-8-10----8-10-8-7----7-8-10
B----------------10----------------------------------------------
G----------------------------------------------------------------
D----------------------------------------------------------------
A----------------------------------------------------------------
E----------------------------------------------------------------


e---7-8-10-7-8-10-7-8-10-7-8-10-7-8-10-7-10-16--15-17-18-15-17-18-
B-----------------------------------------------------------------
G-----------------------------------------------------------------
D-----------------------------------------------------------------
A-----------------------------------------------------------------
E-----------------------------------------------------------------


e---15-17-18-10-10-8-10-8-10-10h12-10-8-10------------------------
B-----------------------------------------10----7-9-10-7-9-10-----
G-----------------------------------------------------------------
D-----------------------------------------------------------------
A-----------------------------------------------------------------
E-----------------------------------------------------------------


e-----------------------------------------------------------------
B---7-9-10-9-10-10-9-9-10-9-9-10-9-9-10-9-9-10-9-9-10-9-9-10-10-9
G-----------------------------------------------------------------
D-----------------------------------------------------------------
A-----------------------------------------------------------------
E-----------------------------------------------------------------


Coro
G#         E           F#                  G#
Como vamos a perder el tiempo en tontas ilusiones
G#          E         F#                  G#
En tus ojos puedo ver mil doscientas sensaciones


G#         E           F#                  G#
Como vamos a perder el tiempo en tontas ilusiones
G#          E         F#                  G#    E
En tus ojos puedo ver mil doscientas sensaciones
G#       E
Para amar .


Esta fue toda la canción,
 cualquier sugerencia escriban a mi correo 

            
            
Suggest correction
Creating personal tab
Creating personal tab
You can edit any tab online and save it as your Personal.

You can edit, replace or remove any tab part or add personal notes – all changes will be seen only by you.

Personal tabs can be accessed anytime from any device, even offline.
Learn more »
Give kudos to tab author, rate the tab!
1 2 3 4 5
comments
print report bad tab
guest
Wanna post a correction for this tab? Suggest correction