Oops, an error
Loading. Please wait.

Arco Iris tab

by Kronos
23 views 1 this week
no commentswrite comment
1 2 3 4 5
3 more votes to show rating
add to favorites
×
Save as Personal and add changes to this tab that will be seen only by you. Learn more ›
×
You can save this tab as Personal to edit and correct it or add notes. All changes will be seen only by you. Learn more »
launch autoscroll
font size
0
reset
how to read this tab
guitar tuner
edit
Autoscroll
slow
fast
+/-
esc
set tempo
stop
Bueno aqui les envio otra de mis transcripciones.
espero les guste.........
los rif estan en base, los arreglos q suenan son pura tecnica
tienen q escuchar la cancion  para q entiendan a que me refiero.


saludos a jorge "fresquet" vocalista.....
exitos ......sigan produciendo buenas canciones.


(B5     F#5   E5  F#5) guitarra libre

E -----------------------------------------------
B -----------------------------------------------
G -------6-8-6-----------------------------------
D---9---------9-8-9-8-6--8-8-8--6----------------
A----------------------------------------9-------
E------------------------------------------------


E -----------------------------------------------------
B ------------7-9-7----------------------6h8p6---------
G ------6-8----------9-8-6---8-8-8-9----------9--------
D--9---------------------------------------------------
A------------------------------------------------------
E------------------------------------------------------


(Pal muting) xxxxxxxxxxxxxxxx

B5          F#5          E5
En un cielo Azul despertarás
          F#5
Si estás dormida vida
B5       F#5         E5
Rojos pétalos te tocarán
          F#5
Si estás dormida vida


(B5     F#5   E5  F#5) guitarra libre

E ----------------------------------------------------------
B ----------------------------------------------------------
G ---6h8-6h8p6----------------------------------------------
D --------------------9-8-------8-9-8-6-8-8-8--6------------
A --------------------------9x--------------------9---------
E ----------------------------------------------------------


E ------------------------------------------------------------
B -----------7-7h9p7---7h9-7h9p7------------------------------
G -----6-8----------------------------------------6h8p6-------
D --9-----------------------------------8-8-8-9-----------9---
A ------------------------------------------------------------
E ------------------------------------------------------------


(Pal muting) xxxxxxxxxxxxxxx


B5         F#5          E5
Las nubes violetas bailarán
       F#5
Con tu cuerpo vida
B5          F#5          E5
Y tus pies descalzos pisarán
     F#5
Mi mundo vida


Guitarra libre


G#5          F#5
Tu aliento sentiré
        E5
Desde algún lugar
G#5          F#5
Volando llegaré
         E5
A donde tu estás
              F#5
A donde tu estás


(B5     F#5   E5  F#5) guitarra libre

E --------------------------------------------------------------
B --------------------7-------7-7h9-7---------------------------
G ---6h8-6h8p6-----------------------------------6--------------
D -------------------------9---------------8-8-8--9-----9-------
A --------------------------------------------------------------
E --------------------------------------------------------------

E --------------------------------7-----9h11-9h11p9/7--7------
B ---------------------7-7h9----------------------------------
G ---6h8-6h8p6------------------------------------------------
D ------------------------------------------------------------
A ------------------------------------------------------------
E ------------------------------------------------------------


(Pal muting) xxxxxxxxxxxxxxx


B5          F#5    E5             F#5
Tu piel de coral, tus manos blancas
B5         F#5     E5             F#5
Vas a dibujar Arco Iris

Guitarra libre

C#5      G#5    F#5
_____En verde bailarás
 G#5
Desnuda vida
C#5          G#5          F#5
 Y tus ojos negros se abrirán
   G#5            C#5      G#5    F#5
 Niña insegura
   G#5            C#5      G#5    F#5
 Niña insegura
 Uoo uoooooo

E -----------------------------------------------
B -----------------------------------------------
G ------------5----8h10-8h10p8/6--6--------------
D---6-6-6--8-------------------------------------
A------------------------------------------------
E------------------------------------------------


alguna duda escribanme a darkavalanch@
a y a la gente de Kronos si ven esta tablatura escribanme.

            
            
Suggest correction
Creating personal tab
Creating personal tab
You can edit any tab online and save it as your Personal.

You can edit, replace or remove any tab part or add personal notes – all changes will be seen only by you.

Personal tabs can be accessed anytime from any device, even offline.
Learn more »
Give kudos to tab author, rate the tab!
1 2 3 4 5
comments
print report bad tab
guest
Wanna post a correction for this tab? Suggest correction