Oops, an error
Loading. Please wait.

Igual Que Ayer tab

version 1
version 1

Whole song

by Kronos
194 views 3 this week
no commentswrite comment
1 2 3 4 5
3 more votes to show rating
add to favorites
×
Save as Personal and add changes to this tab that will be seen only by you. Learn more ›
×
You can save this tab as Personal to edit and correct it or add notes. All changes will be seen only by you. Learn more »
launch autoscroll
font size
0
reset
how to read this tab
guitar tuner
edit
Autoscroll
slow
fast
+/-
esc
set tempo
stop
(Acordes con acustica,riff con electrica)

si aparec esto = se hac un apagado suena bien
pero si quieren no lo hacen

INTRO:
D----------------------------------------|
A---------0-=-0--4-2-0--0-=-0--0-4-2-----|
E-0-2-5-2----------------------------5-2-|

VERSOS
e----=---2-----=----------2-------------|
B----=---2-----=--------3---0-----------|(estos riff se oye
G----=---3-----=------2-----1-----------|muy de fondo traten
D----=---4-----=------------2-----------|de concentrarcen
A-4--=---------=------------2-----------|para oirlos)
E-2--=---------=------------------------|
FA#m                RE       MI
Te marchaste con el sol de madrugada
FA#m                RE       MI
en las noches una estrella te guio
FA#m            RE       MI
en mis ojos aun queda tu mirada y

E--2-------------2--------------------------------------------|
B--2-------------3--------------------------------------------|
G--2-------------2--------------------------------------------|
D--4-------------0--------------------------------------------|
A--4-------------X-------------0-=-0--4-2-0--0-=-0--0-4-2-----|
E--2-------------X-----0-2-5-2----------------------------5-2-|
 FA#m            RE      MI
 un adios, que nunca  termino...

VERSOS
e----=---2-----=----------2-------------|
B----=---2-----=--------3---1-----------|
G----=---3-----=------2-----0-----------|
D----=---4-----=------------2-----------|
A-4--=---------=------------2-----------|
E-2--=---------=------------------------|
FA#m                 RE         MI
Pasa el tiempo y mis notas te acompañan,
FA#m            RE       MI
en mi mente aun suena tu cancion
FA#m                     RE         MI
Tengo el recuerdo de tus sueños que me atrapan,

e---=--2---=-------=---3---------------|
B---=--2---=-------=---2---------------|
G---=--3---=---3---=---3---------------|
D---=--4---=---0---=-------------------|
A-4-=------=---X---=--------2-2-2-2...-|
E-2-=------=---X---=--------0-0-0-0...-|
 FA#m          RE      MI
 estas clavada en mi corazon

CORO
e-----=---2---=--------=-----2-----=-------=------0-----------------------|
B-----=---2---=--------=-----3-----=-------=------0-----------------------|
G-----=---3---=----3---=-----2-----=-------=------1-----------------------|
D-----=---4---=----0---=-----------=---2---=------2-----------------------|
A-4---=-------=--------=-----------=---2---=-------------0--0--0-4-2------|
E-2---=-------=--------=-----------=---0---=-------------------------5-2--|
FA#m               RE                  MI                   LA
Cuando escuches de nuevo mis palabras, siempre recordaras
FA#m           RE                 MI                 LA
que una vez te dije que te amaba eso nunca cambiara
FA#m                 RE                          MI
y hoy me pregunto que ha pasado te quiero aqui a mi lado... igual que ayer.

INTRO
D--------------------------------------|
A---------0--0--4-2-0--0--0--0-4-2-----|
E-0-2-5-2--------------------------5-2-|

VERSO
e----=---2-----=----------2-------------|
B----=---2-----=--------3---1-----------|
G----=---3-----=------2-----0-----------|
D----=---4-----=------------2-----------|
A-4--=---------=------------2-----------|
E-2--=---------=------------------------|
 FA#m              RE           MI
 El camino se hace largo y ya mañana,
 FA#m          RE     MI
 escucharas el eco de mi voz
 FA#m           RE          MI
 en tu equipaje llevas escondido

e---=--2---=-------=---3---------------|
B---=--2---=-------=---2---------------|
G---=--3---=---3---=---3---------------|
D---=--4---=---0---=-------------------|
A-4-=------=---X---=--------2-2-2-2...-|
E-2-=------=---X---=--------0-0-0-0...-|
 FA#m          RE      MI
 mi corazon, un beso y una flor

CORO
e-----=---2---=--------=-----2-----=-------=------0-----------------------|
B-----=---2---=--------=-----3-----=-------=------0-----------------------|
G-----=---3---=----3---=-----2-----=-------=------1-----------------------|
D-----=---4---=----0---=-----------=---2---=------2-----------------------|
A-4---=-------=--------=-----------=---2---=-------------0--0--0-4-2------|
E-2---=-------=--------=-----------=---0---=-------------------------5-2--|
FA#m               RE                  MI                   LA
Cuando escuches de nuevo mis palabras, siempre recordaras
FA#m           RE                 MI                 LA
que una vez te dije que te amaba eso nunca cambiara
FA#m                 RE                          MI
y hoy me pregunto que ha pasado te quiero aqui a mi lado... igual que ayer.

SOLO
E--------------------------|-------------------|
B-5----5-------------------|--5-5---5-7--5H4-5-|
G--------7-6-4-4H6--6-7-6-4|------7------------|
D--------------------------|-------------------|
A--------------------------|-------------------|
E--------------------------|-------------------|

E-4-4--4---------|-5B-5-4-5-7-5H4-5-|
B--------7-5-7-5-|------------------|
G----------------|------------------|(el solo no esta super super
D----------------|------------------|pero suena bien, solo cojanle
A----------------|------------------|el timpo)
E----------------|------------------|

FA#m                 RE                          MI
y hoy me pregunto que ha pasado te quiero aqui a mi lado... igual que ayer.
FA#m               RE                  MI                   LA
Cuando escuches de nuevo mis palabras, siempre recordaras
FA#m           RE                 MI                 LA
que una vez te dije que te amaba eso nunca cambiara
FA#m                RE
Mi cancion es la historia que nos une,
MI                      LA
te persigue a donde vas
FA#m                RE
mi cancion es la historia que
MI                           LA
nos une te persige adonde vas
FA#m           RE
nana na nanana nananana
MI                 LA
nana nananana na
FA#m           RE                 MI                 LA
Y hoy me pregunto que ha pasado,
FA#m           RE
te quiero aqui a mi lado... igual que ayer.

E---------------------|
B-----------2---------|
G---------2---2-------|
D-------4-------4-----|
A-----4---------------|
E---2-----------------|FIN

(El solo c toca con el ritmo del coro)

mi primer trancricion y esta genial creo yo

            
            
Suggest correction
Creating personal tab
Creating personal tab
You can edit any tab online and save it as your Personal.

You can edit, replace or remove any tab part or add personal notes – all changes will be seen only by you.

Personal tabs can be accessed anytime from any device, even offline.
Learn more »
Give kudos to tab author, rate the tab!
1 2 3 4 5
comments
print report bad tab
guest
Wanna post a correction for this tab? Suggest correction