Oops, an error
Loading. Please wait.

Igual Que Ayer tab

version 2
version 2

Whole song

by Kronos
86 views 1 this week
no commentswrite comment
1 2 3 4 5
3 more votes to show rating
add to favorites
×
Save as Personal and add changes to this tab that will be seen only by you. Learn more ›
×
You can save this tab as Personal to edit and correct it or add notes. All changes will be seen only by you. Learn more »
launch autoscroll
font size
0
reset
how to read this tab
guitar tuner
edit
Autoscroll
slow
fast
+/-
esc
set tempo
stop
Hola a todos, esta es mi primera transcripcion de una de las
mejores cancione que tiene Kronos.
Espero les guste...
Tienen que escucharla muy bien para que le cojan los tiempos.

Visiten mi pagina 

La X significa que hay que apagar la cuerda...

INTRO:
D------------------------------------------|
A----------------4-2-----------------------|
E-0-2-5-2-5-x-5------5-2-5-x-5----5-5--4-2-|

VERSOS
e----x---2-----x----------2-------------|
B----x---2-----x--------3---0-----------|
G----x---2-----x------2-----1-----------|
D----x---4-----x------------2-----------|
A-4--x---------x------------2-----------|
E-2--x---------x------------------------|
F#m                  D        E
Te marchaste con el sol de madrugada
F#m                  D        E
en las noches una estrella te guio
F#m                  D        E
en mis ojos aun queda tu mirada y

E--2-------------2-----------------------------------------------|
B--2-------------3-----------------------------------------------|
G--2-------------2-----------------------------------------------|
D--4-------------0-----------------------------------------------|
A--4-------------X---------------------4-2-----------------------|
E--2-------------X------0-2-5-2-5-x-5------5-2-5-x-5----5-5--4-2-|
 D              E       Intro
 un adios, que nunca  termino...

VERSOS
e----x---2-----x----------2-------------|
B----x---2-----x--------3---1-----------|
G----x---3-----x------2-----0-----------|
D----x---4-----x------------2-----------|
A-4--x---------x------------2-----------|
E-2--x---------x------------------------|
F#m                  D        E
Pasa el tiempo y mis notas te acompañan,
F#m                  D        E
en mi mente aun suena tu cancion
F#m                  D        E
Tengo el recuerdo de tus sueños que me atrapan,

e---x--2---x-------x---2---------------|
B---x--2---x-------x---3---------------|
G---x--2---x---2---x---2---------------|
D---x--4---x---0---x-------------------|
A-4-x------x-------x--------2-2-2-2...-|
E-2-x------x-------x--------0-0-0-0...-|
 F#m            D           E
 estas clavada en mi corazon

CORO
e----x--2--x--------x-----2-----x-------x------0---------------------|
B----x--2--x--------x-----3-----x-------x------0---------------------|
G----x--2--x----2---x-----2-----x-------x------1---------------------|
D----x--4--x----0---x-----------x---2---x------2---------------------|
A-4--x-----x--------x-----------x---2---x-----------0--0--0-4-2------|
E-2--x-----x--------x-----------x---0---x-----------------------5-2--|
F#m                D                  E                   A
Cuando escuches de nuevo mis palabras, siempre recordaras
F#m                D                  E                   A
que una vez te dije que te amaba eso nunca cambiara
F#m                             D                      E
y hoy me pregunto que ha pasado te quiero aqui a mi lado...igual que ayer.

INTRO
D------------------------------------------|
A----------------4-2-----------------------|
E-0-2-5-2-5-x-5------5-2-5-x-5----5-5--4-2-|

VERSO
e----x---2-----x----------2-------------|
B----x---2-----x--------3---0-----------|
G----x---2-----x------2-----1-----------|
D----x---4-----x------------2-----------|
A-4--x---------x------------2-----------|
E-2--x---------x------------------------|
 F#m            D            E
 El camino se hace largo y ya mañana,
 F#m            D            E
 escucharas el eco de mi voz
 F#m            D            E
 en tu equipaje llevas escondido

e---x--2---x-------x---2---------------|
B---x--2---x-------x---3---------------|
G---x--2---x---2---x---2---------------|
D---x--4---x---0---x-------------------|
A-4-x------x-------x--------2-2-2-2...-|
E-2-x------x-------x--------0-0-0-0...-|
 F#m            D           E
 mi corazon, un beso y una flor

CORO
e----x--2--x--------x-----2-----x-------x------0---------------------|
B----x--2--x--------x-----3-----x-------x------0---------------------|
G----x--2--x----2---x-----2-----x-------x------1---------------------|
D----x--4--x----0---x-----------x---2---x------2---------------------|
A-4--x-----x--------x-----------x---2---x-----------0--0--0-4-2------|
E-2--x-----x--------x-----------x---0---x-----------------------5-2--|
F#m                D                  E                   A
Cuando escuches de nuevo mis palabras, siempre recordaras
F#m                D                  E                   A
que una vez te dije que te amaba eso nunca cambiara
F#m                             D                      E
y hoy me pregunto que ha pasado te quiero aqui a mi lado... igual que ayer.

SOLO: OJO CON LOS TIEMPOS
E--------------------------|-------------------|
B------3h5p3-2-------------|----------3/5-7V---|
G--4b----------2h4p2-------|-4b-4-2-4----------|
D--------------------4-----|-------------------|
A--------------------------|-------------------|
E--------------------------|-------------------|

E--------------------------|-------------------|
B--9V----8-9-9---8-9-------|-10b---10-10--8V---|(V) Vibrato
G-------------------10V----|-------------------|(b) bend
D--------------------------|-------------------|
A--------------------------|-------------------|
E--------------------------|-------------------|

hay un corte donde esta (F#m), si lo quieren hacer cortan
donde esta la nota

F#m                D                  E                     A
y hoy me pregunto que ha pasado te quiero aqui a mi lado... igual que ayer.
(F#m)              F#m         D       E               A
Cuando escuches de nuevo mis palabras, siempre recordaras
F#m             D                 E                  A
que una vez te dije que te amaba eso nunca cambiara
F#m                  D
Mi cancion es la historia que nos une,
E                    A
te persigue a donde vas
F#m                  D
nana na nanana nananana
E                  A
nana nananana na
F#m                             D                      E
y hoy me pregunto que ha pasado te quiero aqui a mi lado... igual que ayer.

E---------------------|
B-----------2---------|
G-------------2-------|
D-------4-------4-----|
A------4--------------|
E---------------------|

            
            
Suggest correction
Creating personal tab
Creating personal tab
You can edit any tab online and save it as your Personal.

You can edit, replace or remove any tab part or add personal notes – all changes will be seen only by you.

Personal tabs can be accessed anytime from any device, even offline.
Learn more »
Give kudos to tab author, rate the tab!
1 2 3 4 5
comments
print report bad tab
guest
Wanna post a correction for this tab? Suggest correction