Oops, an error
Loading. Please wait.

Black Horse And The Cherry Tree Tab

version 2
version 2

Whole song

Interactive

9,880 views 6 this week
no commentswrite comment
1 2 3 4 5
accurate
x 4
add to favorites
launch autoscroll
font size
0
reset
how to read this tab
guitar tuner
Autoscroll
slow
fast
+/-
esc
set tempo
stop
Help us to improve Ultimate-Guitar.com Take our survey!
×
Author
Difficulty
novice
Tabbed by:BtimusTtimus
Email:Brandon dot thomas at songwriter dot net

Tuning: Standard

Okay so a lot of these tabs are off just a bit, I know cuz KT taught me herself, plus I 
to show what she does when she plays it live too.

Chords
    Em   B7  C  C7   D   D*
e|--0----2---0---0---2----2------------------------------------------------|
B|--0----0---0---2---3----0------------------------------------------------|
G|--0----2---0---2---2----2------------------------------------------------|
D|--2----1---x---0---0----0------------------------------------------------|
A|--2----2---3---2---------------------------------------------------------|
E|--0--------0---2---------------------------------------------------------|

Live Intro (also on the CD during certain choruses) to the rhythm of breaks
e|-------------------|--------------------|-------------------|
B|-------------------|--------------------|-------------------|
G|-------------------|--------------------|-------------------|
D|-------------------|--------------------|-------------------|
A|-------------------|--------------------|-------------------|
E|-0-----12-12-10-12-|-0-----12-12--10-15-|---0----12-12-10-12|

Rock Slide (Not on album)
e|-------------------------------------------------------------------------|
B|-------------------------------------------------------------------------|
G|-------------------------------------------------------------------------|
D|-------------------------------------------------------------------------|
A|-------------------------------------------------------------------------|
E|-----------12 (rock slide) 0---------------------------------------------|
A rock slide is just where you keep strumming and run your finger slowly down the sting

Immediately out of rock slide and into break chords. This is the part that goes over 
hoo!' on the album.

Break:
Em x5 B7 x3 Em x2

The verse has no chords. However KT says you can just bang the beat on your guitar (but 
says not to do it too hard, cuz she actually broke a guitar that way)


After that, comes the chorus


And I said
Em  D
No, no
D*       C
no no no no
Em D
no no
C7 (Just hit it once and cut it off.)
You're not the one for me.

This goes into to the intro, but without rock slide.
The Repeat.

Here's the kazoo part.

e|-12-12---10-12-15-12-10-|--12-12-10-12-|
B|------------------------|--------------|
G|------------------------|--------------|
D|------------------------|--------------|
A|------------------------|--------------|
E|------------------------|--------------|


************************************

| /   slide up
| \   slide down
| h   hammer-on
| p   pull-off
| ~   vibrato
| +   harmonic
| x   Mute note
| b   Bend
| pb  Pre-bend
| br  Bend release
| pbr Pre-bend release
| brb Bend release bend

************************************
Suggest correction
comments
print report bad tab
guest
You may want to rate the tab now too:
select rating
Please do not post tabs as comments. Select "correction" instead!