Oops, an error
Loading. Please wait.

Change Tab

5,216 views 15 this week
no commentswrite comment
1 2 3 4 5
please rate
add to favorites
launch autoscroll
font size
0
reset
how to read this tab
guitar tuner
Tab Pro tools
  • play this tab
  • loop segment
  • change instrument
  • show fretboard
  • metronome
×
Best way to learn
"Change"
Autoscroll
slow
fast
+/-
esc
set tempo
stop
Contributor
-------------------------------------------------------------------------------
                             CHANGE - KT Tunstall
-------------------------------------------------------------------------------

Tabbed by: lozenger

Tuning: EADGBe

Very nice song by KT Tunstall, surprised it wasn't more successful!
It's a cool and mellow one to play on an acoustic, particularly good
if you're trying to impress 'the ladies'.

I've written out a picking pattern here, but basically just listen to
the song for the rhythm and then whatever works is fine!


    Em7         Em7              A7                A7   

e||-0---------|-0--------------|-----------------|-0----------------|| ]
B||-----0---0-|-------0---0----|------10------10-|----------10------|| ]
G||-----7---7-|-------7---7----|---12----12------|-------12----12---|| ]
D||---5---5---|-----5---5--(0)-|------11----11---|---(11)---11------|| ]
A||-----------|--(7)-----------|-12--------------|-12---------------|| ]
E||-0---------|-0--------------|-----------------|---------------10-|| ]
                                                                       ]
    Cadd9          Cadd9       Badd11         Badd11                   |> x4
                                                                       ]
e||-8------------|-8---------|-0------------|-0---------------||       ]
B||-----8--------|-----8-----|---4---4------|---4---4-------/-||       ]
G||---0---0--(0)-|---0---0---|-----4----(4)-|-----4-----(4)-/-||       ]
D||-----0--------|-----0-----|---------4----|---------4-----/-||       ]
A||---------7----|---------x-|-2------------|-2---------------||       ]
E||-8------------|-8---------|--------------|-----------------||       ]

    C9          C9            B7            B7

e||-----------|-0-----------|-2-----------|-2-----------||        
B||-----3---3-|-----3-----x-|-----0-------|-----0-------||        
G||---3--(3)--|---3---(3)---|---2---2---2-|---2---2---x-||        
D||-----0---0-|-----0-----x-|-------------|-------------||        
A||-3---------|-3-----------|-2-------2---|-2-------x---||        
E||-----------|-------------|-------------|-------------||         
                                                               
    Em7           Cadd9         G             G
   
e||-0-----------|-3-----------|-3-----------|-3-------------||      
B||-----3-----3-|-----3-----3-|-----3-----3-|---3--(3)------||      
G||-----0---0---|-----0---0---|---0-----0---|-----0---------||      
D||---2---2-----|---2---2-----|-----0-0-----|-------0-----0-||      
A||-------------|-3-----------|-------------|---------0h2---||      
E||-0-----------|-------------|-3-----------|-3-------------||  

    C9          C9            B7            B7    

e||-----------|-0-----------|-2-----------|-2-----------||        
B||-----3---3-|-----3-----x-|-----0-------|-----0-------||        
G||---3--(3)--|---3---(3)---|---2---2---2-|---2---2---x-||        
D||-----0---0-|-----0-----x-|-------------|-------------||        
A||-3---------|-3-----------|-2-------2---|-2-------x---||        
E||-----------|-------------|-------------|-------------||     

    Em7           Cadd9         G             D    
                                                                  
e||-0-----------|-3-----------|-3-----------|-2---2-------||      
B||-----3-----3-|-----3-----3-|-----3-----3-|-----3-----x-||      
G||-----0---0---|-----0---0---|---0-----0---|---2---2-----||      
D||---2---2-----|---2---2-----|-----0-0-----|-0-------0---||      
A||-------------|-3-----------|-------------|-------------||      
E||-0-----------|-------------|-3-----------|-------------||   

    E               E               Emaj7           Emaj7   

e||-0-------------|-0-------------|-0-------------|-0-----------|| ]    
B||-------0-------|-------0-------|-------0-------|-------0-----|| ]   
G||-------1-------|-------1-------|-------1-------|-------1---1-|| ]   
D||-----2---2---2-|-----2---2---1-|-----1---1---1-|-----1-----1-|| ]   
A||---2---2---2---|---2---2---2---|---2---2---2---|---2---2-2---|| ]   
E||-0-------------|-0-------------|-0-------------|-0-----------|| ]
                                                                   ]
    Asus2           Asus2           Am7             Am7add6        |> x2
                                                                   ]
e||-0-------------|-0-------------|-0-------------|-2-----------|| ]    
B||-------0-------|-------0-------|-------1-------|-------1-----|| ]    
G||-----2---2---2-|-----2---2---2-|-----0---0---0-|-----0---0---|| ]    
D||---2---2---2---|---2---2---2---|---2---2---2---|---2---2---x-|| ]    
A||-0-------------|-0-------------|-0-------------|-0-----------|| ]    
E||---------------|---------------|---------------|-------------|| ]    

    Am7add6

e||-2-------||   Pick this once, hold it for four beats,   
B||-1-------||   Then repeat the whole song again!
G||-0-------||   And when it comes to this part for the
D||-2-------||   Second time round, hold it again,
A||-0-------||   Then play the part below:
E||---------||   

    E               E               Emaj7           Emaj7

e||-0-------------|-0-------------|-0-------------|-0-----------||     
B||-------0-------|-------0-------|-------0-------|-------0-----||    
G||-------1-------|-------1-------|-------1-------|-------1---1-||    
D||-----2---2---2-|-----2---2---1-|-----1---1---1-|-----1-----1-||    
A||---2---2---2---|---2---2---2---|---2---2---2---|---2---2-2---||    
E||-0-------------|-0-------------|-0-------------|-0-----------|| 

    Asus2           Asus2           Am7add6         Am7add6
                                                                   
e||-0-------------|-0-------------|-2-------------|-2-------------||     
B||-------0-------|-------0-------|-------1-------|-------1-------||     
G||-----2---2---2-|-----2---2---2-|-----0---0---0-|-----0---0---0-||     
D||---2---2---2---|---2---2---2---|---2---2---2---|---2---2---2---||     
A||-0-------------|-0-------------|-0-------------|-0-------------||     
E||---------------|---------------|---------------|---------------||    

    Am7add6   Am7add6     Emaj7

e||-2-------|-2-----0h2-|-0-----||     
B||-----1---|-----1-----|-0-----||     
G||-------0-|-----0-----|-1-----||     
D||---2-2---|---2-------|-1-----||     
A||-0-------|-0---------|-2-----||     
E||---------|-----------|-0-----||    


And that's it, more or less. Hope it's useful, enjoy playing!


| /  slide up
| \  slide down
| h  hammer-on
| p  pull-off
| ~  vibrato
| +  harmonic
| x  Mute note
===============================================================================
comments
We did not receive enough feedback on this tab! Please rate:
print report bad tab
1 2 3 4 5
I want to post or [tab]
guest
You may want to rate the tab now too:
select rating
Please do not post tabs as comments. Select "correction" instead!