Oops, an error
Loading. Please wait.

Other Side Of The World Tab

version 1
version 1

Intro

Interactive

12,589 views 1 this week
6 commentsread comments
1 2 3 4 5
x 7
add to favorites
launch autoscroll
font size
0
reset
how to read this tab
guitar tuner
Autoscroll
slow
fast
+/-
esc
set tempo
stop
Help us to improve Ultimate-Guitar.com Take our survey!
×
Author
E|---2---2p0-----3---3p0-----2--2-2-0-0003--3-3-000-------|
B|---------------------------3--3-3-0-0003--3-3-333-------|
G|---------------------------2--2-2-0-0002--2-2-222-------|
D|--------------------------------------------------------|
A|--------------------------------------------------------|
E|--------------------------------------------------------|

This sounds pretty good to me. The last chord may be a little off though, the 032 one. 

| /  slide up
| \  slide down
| h  hammer-on
| p  pull-off
| ~  vibrato
| +  harmonic
| x  Mute note
Suggest correction
comments
print report bad tab
6 comments total. Showing first comments.
0 reply
SirShrek 10 Jun 14, 2006 12:51 PM

beginning is ok, but then it should be D with/without pushing (pressing?) the first string.
Something like:
E-2-2-20-0-0-03-3-30-0-0
B-3-3-33-3-3-33-3-33-3-3
G-2-2-22-2-2-22-2-22-2-2
D-0-0-00-0-0-00-0-00-0-0 ...

Don't you think?

0 reply
Kramcar 15 Jun 14, 2006 02:30 PM

^^I think that sounds a lot better.

0 reply
codisilver 31 Jul 10, 2007 09:26 PM

not accurate at all

guest
You may want to rate the tab now too:
select rating
Wanna post a correction for this tab? Suggest correction