Oops, an error
Loading. Please wait.

Paper Aeroplane Tab

version 2
version 2

Whole song

4,804 views 1 this week
1 commentread comment
1 2 3 4 5
2 more votes to show rating
add to favorites
launch autoscroll
font size
0
reset
how to read this tab
guitar tuner
Autoscroll
slow
fast
+/-
esc
set tempo
stop
Help us to improve Ultimate-Guitar.com Take our survey!
×
Author
-------------------------------------------------------------------------------
                             PAPER AEROPLANE - KT Tunstall
-------------------------------------------------------------------------------
Tabbed by: devil2005
Email:devil2004@gmail.com

Tuning: Standard

The song is in a triplet beat, 4/4 time.

Intro/Verse:

 |1 + a 2 + a 3 + a 4 + a |1 + a 2 + a 3 + a 4 + a |1 + a 2 + a 3 + a 4 + a |
e|------2-----------2-----|------5-----------5h7---|------------0-----------|
B|----2---3-------3---3/7-|----7---7-------7-------|------0-----------0-----|
G|--2---2---2---2---------|--6---6---6---6---------|----0---0-------0---0---|
D|0-----------0-----------|0-----------0-----------|--0-------0---0-------0-|
A|------------------------|------------------------|------------------------|
E|------------------------|------------------------|7-----------7-----------|

 |1 + a 2 + a 3 + a 4 + a :|
e|------------------------:|
B|----0-----0-----0-----0-:|
G|--0-----0-----0-----0---:|
D|------------------------:|
A|7-----5-----------0-----:|
E|------------3-----------:|


Chorus:

The fourth measure changes every time, this is the tab of the first time. Figure the 
on your own if it's that important to you :)

 |1 + a 2 + a 3 + a 4 + a |1 + a 2 + a 3 + a 4 + a |1 + a 2 + a 3 + a 4 + a|
e|------------------------|------------------------|------------------------|
B|3-----------3-----------|4-----------3-----2-----|------0-----------------|
G|--3-------3---3-------3-|--3-------3---3-----3---|----1---1---------1-----|
D|----3---3-------3---3---|----3---3-------3-----3-|--2-------2-----2-----0-|
A|0-----0-----------0-----|------0-----------------|2-------------2---------|
E|------------------------|------------------------|------------0-------2---|

 |1 + a 2 + a 3 + a 4 + a |1 + a 2 + a 3 + a 4 + a |1 + a 2 + a 3 + a 4 + a |
e|------------0-----------|------------------------|------------------------|
B|------0-----------3-----|3-----------3-----------|4-----------3-----2-----|
G|----0---0-------0---0---|--3-------3---3-------3-|--3-------3---3-----3---|
D|--0-------0---0-------0-|----3---3-------3---3---|----3---3-------3-----3-|
A|------------------------|0-----0-----------0-----|------0-----------------|
E|3-----------------------|------------------------|------------------------|
 |1 + a 2 + a 3 + a 4 + a |  1 2 3 4 |
e|------------------------|s-3-------|
B|------0-----------------|t-0-------|
G|----1---1---------1-----|r-0-------|
D|--2-------2-----2-----0-|u-0-------|
A|2-------------2---------|m-2-------|
E|------------0-------2---|--3-------|

Lyrics:

Well this stone that I have swallowed
Isn't going down so well
And this road that I have followed
Is leading me to Hell

And you said it didn't matter
But I think you're a liar
Is this one of your talents
That stokes the very fire that burns you
Each time you try to live

And the earth will turn below you
The pressure is building
And something has to give
Oh something has to give

And when I build you a steeple
You say it's incomplete
'Cause you need the whole cathedral
To satisfy the need

And you're like a paper aeroplane
That never seems to land
Flying blind through anything
Straight into the hand that chokes you
Each time you try to live

And the earth will turn below you
The pressure is building
And something has to give
Oh something has to give

Well you're like a paper aeroplane
That never seems to land
Flying blind through anything
Straight into the hand

Well you're like a paper aeroplane
That never seems to land
Flying blind through anything
Straight into the hand that chokes you
Each time you try to live

And the earth will turn below you
The pressure is building
The pressure is building
The fire that burns you
Each time you try to live

And the earth will turn below you
The pressure is building
And something has to give
Something has to give
Something has to give
Something has to give
Something has to give
Give


| /  slide up
| \  slide down
| h  hammer-on
| p  pull-off
| ~  vibrato
| +  harmonic
| x  Mute note
===============================================================================
Suggest correction
Give kudos to tab author, rate the tab!
1 2 3 4 5
comments
print report bad tab
1 comment total.
0 reply
devil2005 30 Dec 08, 2008 11:30 PM

sorry on the chorus the chord is an A, then add the pinky on the 5th string, then take it off. sorry

guest
You may want to rate the tab now too:
select rating
Wanna post a correction for this tab? Suggest correction