Oops, an error
Loading. Please wait.

Saving My Face Bass Tab

1,377 views 1 this week
no commentswrite comment
1 2 3 4 5
2 more votes to show rating
add to favorites
launch autoscroll
font size
0
reset
guitar tuner
Autoscroll
slow
fast
+/-
esc
set tempo
stop
Help us to improve Ultimate-Guitar.com Take our survey!
×
Saving my face - KT Tunstall

Intro
----------------------------------------|
----------------------7-6---------------|
--7-6-4-----7-6-4---------2-0-0-0-0-0---|
----------------------------------------|

Chorus
----------------------------|
-------2222-----------------|   x4
--4444-------------22-33----|
-------------4444-----------|

Intro
Chorus (x2)

Bridge
------------------------------|     ------------------------|
--------2222------------------|(x2) --------2222------------|
--0000-------------4444-2222--|     --0000------------------|
-------------4444-------------|     -------------4444-4444--|

Bridge 2
----------------------|
-----------2222-------|
--4-2-0000------------|
----------------4444--| 2'21

Chorus (x4)

Outro
----------------------------|
--------2222----------------|
--0000-------------4-2-0----|
-------------4444-----------|
Suggest correction
Give kudos to tab author, rate the tab!
1 2 3 4 5
comments
print report bad tab
guest
You may want to rate the tab now too:
select rating
Wanna post a correction for this tab? Suggest correction