Oops, an error
Loading. Please wait.

Hometown Strategies intro tab

135 views 3 this week
1 commentread comment
1 2 3 4 5
2 more votes to show rating
add to favorites
×
Save as Personal and add changes to this tab that will be seen only by you. Learn more ›
×
You can save this tab as Personal to edit and correct it or add notes. All changes will be seen only by you. Learn more »
launch autoscroll
font size
0
reset
how to read this tab
guitar tuner
edit
Autoscroll
slow
fast
+/-
esc
set tempo
stop
Author
Here we are, first tab, i worked this baby out, its the lead in the intro and throughout 
lot of the tune. Have fun!

e------------------------------------------------------------------|
b-5-7-5-0-0-0-0---5-7-5-0-0-0-0---7-8-7-----------7-8-7------------|
g---------------------------------------7-7-7-7---------7-7-7-7----|
d------------------------------------------------------------------|
a------------------------------------------------------------------|
e------------------------------------------------------------------|

Remove Your Hometown!

            
            
Suggest correction
Creating personal tab
Creating personal tab
You can edit any tab online and save it as your Personal.

You can edit, replace or remove any tab part or add personal notes – all changes will be seen only by you.

Personal tabs can be accessed anytime from any device, even offline.
Learn more »
Give kudos to tab author, rate the tab!
1 2 3 4 5
comments
print report bad tab
1 comment total.
0 reply
ben__dawson 10 May 23, 2007 07:30 AM

this is correct:
----------------
-5h7p5----------
-------0-0-0-0--
other bit is fine,
while am on here i may aswell put down what i think the 2nd guitar plays along with this...
-----------------------------------------------------------------
-3-3-3-3-3-3-3-3-2-2-2-2-0-0-0-0---------------------------------
---------------------------------2-2-2-2-2-2-2-2-----------------
-------------------------------------------------4-4-4-4-4-4-4-4-
-----------------------------------------------------------------
-----------------------------------------------------------------

guest
You may want to rate the tab now too:
select rating
Wanna post a correction for this tab? Suggest correction