Oops, an error
Loading. Please wait.

Just Shut It Down tab

version 1
version 1

Whole song

156 views 1 this week
2 commentsread comments
1 2 3 4 5
2 more votes to show rating
add to favorites
×
Save as Personal and add changes to this tab that will be seen only by you. Learn more ›
×
You can save this tab as Personal to edit and correct it or add notes. All changes will be seen only by you. Learn more »
launch autoscroll
font size
0
reset
how to read this tab
guitar tuner
edit
Autoscroll
slow
fast
+/-
esc
set tempo
stop
Author
Difficulty
Band: Kubichek!
Song: Just Shut It Down
Album: Not Enough Night

Tuning: Standard


INTRO 00:00-00:21
|----7(x8)---------------------|
|---------8(x8)-9(x8)----------|
|--------------------9(x8)-----|
|------------------------------|
|------------------------------|
|------------------------------| x 4


Verse
"It's every other night it gets to this...
I'd like to see it happen, If only it would happen"
00:33
|------7-7-7-7------------|
|---------------9-8-------|
|-------------------------|
|-------------------------|
|-------------------------|
|-------------------------| x 2

|------5--5--5---4--4--4--|
|----6--6--6----4--4--4---|
|-------------------------|
|-------------------------|
|-------------------------|
|-------------------------|


00:44
"There is nothing better than playing it safe..."


CHORUS
"You're seeing things through my eyes..>"
|----7(x8)---------------------|
|---------8(x8)-9(x8)----------|
|--------------------9(x8)-----|
|------------------------------|
|------------------------------|
|------------------------------| x 4

VERSE
|------7-7-7-7------------|
|---------------9-8-------|
|-------------------------|
|-------------------------|
|-------------------------|
|-------------------------| x 2

|------5--5--5---4--4--4--|
|----6--6--6----4--4--4---|
|-------------------------|
|-------------------------|
|-------------------------|
|-------------------------|

"It's every other night..."
|-------------------------|
|----3-4-4-4-4-4----------|
|-------------------------|
|-------------------------|
|-------------------------|
|-------------------------| x 2

|-------------------------|
|----6-6-6-6-6-6-6-4-3----|
|---------------------4---|
|-------------------------|
|-------------------------|
|-------------------------|

Same riffs throughout.

Ending:
|--9(x32)--11(x22)--14(x8)--12(x20)--16(x8)--11(x8)--12(x4)--11(x4)--9--|
|-----------------------------------------------------------------------|
|-----------------------------------------------------------------------|
|-----------------------------------------------------------------------|
|-----------------------------------------------------------------------|
|-----------------------------------------------------------------------|

            
            
Suggest correction
Creating personal tab
Creating personal tab
You can edit any tab online and save it as your Personal.

You can edit, replace or remove any tab part or add personal notes – all changes will be seen only by you.

Personal tabs can be accessed anytime from any device, even offline.
Learn more »
Give kudos to tab author, rate the tab!
1 2 3 4 5
comments
print report bad tab
2 comments total.
0 reply
maccomacco 53 Dec 23, 2007 01:11 AM

The intro is not played like that. More like:

7 (x8)---------------------
-----9 (x8)---10 (x8)---5
(x8)
-------------------------
-------------------------
-------------------------
-------------------------

0 reply
samhalverson 61 Nov 13, 2008 09:42 AM

Yeah I admit this tab is terrible. Sorry.

guest
You may want to rate the tab now too:
select rating
Wanna post a correction for this tab? Suggest correction