Oops, an error
Loading. Please wait.

Instabiel Zei De Kat Tab

by Kud
1,777 views 3 this week
no commentswrite comment
1 2 3 4 5
accurate
x 1
add to favorites
launch autoscroll
font size
0
reset
how to read this tab
guitar tuner
Tab Pro tools
  • play this tab
  • loop segment
  • change instrument
  • show fretboard
  • metronome
Autoscroll
slow
fast
+/-
esc
set tempo
stop
Contributor
Difficulty
novice
Op gehoor ben ik aan de akkoorden gekomen.

met capo op 3 zijn de akkoorden:
    C     F     G
e|-----|-----|-----|
B|--1--|-----|-----|
G|--0--|--2--|--0--|
D|--2--|--3--|--0--|
A|--3--|--3--|--2--|
E|-----|--1--|--3--|

capo 3
   C                        F                        G
e|------------------------|-----------------------|-----------------------|
B|---1-----1-----1-----1--|-----------------------|-----------------------|
G|---0-----0-----0-----0--|---2-----2-----2-----2-|---0-----0-----0-----0-|
D|---2-----2-----2-----2--|---3-----3-----3-----3-|---0-----0-----0-----0-|
A|-3-----3-----3-----3----|---3-----3-----3-----3-|---2-----2-----2-----2-|
E|------------------------|-1-----1-----1-----1---|-3-----3-----3-----3---|
   C                       
e|------------------------||
B|---1-----1-----1-----1--||
G|---0-----0-----0-----0--|| Dit 4x spelen
D|---2-----2-----2-----2--|| 
A|-3-----3-----3-----3----||
E|------------------------||

de vier keer wordt de laatste C anders gespeeld zoals hieronder:

   dus de man stierf                     
e|------------------------|
B|---1-----1--------------|
G|---0-----0--------------|
D|---2-----2--------------|
A|-3-----3-----3----------|
E|------------------------|
   

   C      F
Instabiel zei de kat
   G      C
Instabiel zei de kat
   C      F
Instabiel zei de kat
   G
Maar niemand kan een kat verstaan
C
dus de man stierf

[het gedeelte zonder zang, met fluiten is precies hetzelfde]




zonder capo zijn de akkoorden:
   D#    G#   A#
e|-----|-----|-----|
B|--8--|-----|-----|
G|--8--|--5--|--7--|
D|--8--|--6--|--8--|
A|--6--|--6--|--8--|
E|-----|--4--|--6--|

   D#                        G#                      A#
e|------------------------|-----------------------|-----------------------|
B|---8-----8-----8-----8--|-----------------------|-----------------------|
G|---8-----8-----8-----8--|---5-----5-----5-----5-|---7-----7-----7-----7-|
D|---8-----8-----8-----8--|---6-----6-----6-----6-|---8-----8-----8-----8-|
A|-6-----6-----6-----6----|---6-----6-----6-----6-|---8-----8-----8-----8-|
E|------------------------|-4-----4-----4-----4---|-6-----6-----6-----6---|
   D#                       
e|------------------------||
B|---8-----8-----8-----8--||
G|---8-----8-----8-----8--|| dit 4x spelen
D|---8-----8-----8-----8--||
A|-6-----6-----6-----6----||
E|------------------------||

de vierde keer is het figuurtje van de laatste maat anders.
dat ziet er dan zo uit:

   D#                       
e|------------------------|
B|---8-----8--------------|
G|---8-----8--------------|
D|---8-----8--------------|
A|-6-----6-----6----------|
E|------------------------|

   D#      G#
Instabiel zei de kat
   A#      D#
Instabiel zei de kat
   D#      G#
Instabiel zei de kat
   A#
Maar niemand kan een kat verstaan
D#
dus de man stierf

[het gedeelte zonder zang, met fluiten is precies hetzelfde]
comments
We did not receive enough feedback on this tab! Please rate:
print report bad tab
1 2 3 4 5
I want to post or [tab]
guest
You may want to rate the tab now too:
select rating
Please do not post tabs as comments. Select "correction" instead!