Oops, an error
Loading. Please wait.

Okey tab

by Kudai
22 views 1 this week
no commentswrite comment
1 2 3 4 5
3 more votes to show rating
add to favorites
×
Save as Personal and add changes to this tab that will be seen only by you. Learn more ›
×
You can save this tab as Personal to edit and correct it or add notes. All changes will be seen only by you. Learn more »
launch autoscroll
font size
0
reset
how to read this tab
guitar tuner
edit
Autoscroll
slow
fast
+/-
esc
set tempo
stop
Intro: FA#  DO#m  RE#m  MI  (2 veces)


 SI     MI
Okey, aquí no te queda nada más que hacer
 SI            MI
lo sé, ya no quieres perder tu tiempo
   DO#m                   MI
escondete en el silencio, porque

aquí no podras volver.

 SI      MI
Okey, ni con el viento lo intentes hacer
 SI            MI
muy bien, solo piérdete en el infierno
 DO#m
no me llames, no me busques
 MI                     FA#m
que esta vez no voy a caer.

        DO#m             MI
Si no estas puedo ver la libertad
        SI                 FA#m
si no estas ya no habra porque llorar
        DO#m             MI
si no estas al fin puedo respirar
        DO#m      MI (marcarlo)  FA#m  DO#m  RE#m  MI
yo sin ti estoy bien.

  SI          MI
Muy bien, si ahora tienes el mundo entero a tus pies
SI          MI
okey, ya no te creo ni lo que rezas
  DO#m
solo vete y no regreses
 MI                      FA#m
que no habra lugar para ti en mi.

        DO#m             MI
Si no estas puedo ver la libertad
        SI                 FA#m
si no estas ya no habra porque llorar
        DO#m             MI
si no estas al fin puedo respirar
                  SI              FA#m
si no estas ya no habra porque llorar.


SOLO:( b SIGNIFA LIZADO)

E-15-15-16-17-17b-17b-17b-15-15-16-17-17b-17b-17b-15-15-16-
B----------------------------------------------------------
G----------------------------------------------------------
D----------------------------------------------------------
A----------------------------------------------------------
E----------------------------------------------------------

E-17-17b-17b-17b-15-17b-17b-15-15-17b-17b-15-15-------------
B---------------------------------------------17-17-17-17-17
G-----------------------------------------------------------
D-----------------------------------------------------------
A-----------------------------------------------------------
E-----------------------------------------------------------

E-----------------------------------------------------------
B-17-16-16-16-16-16-16b-------------------------------------
G-----------------------------------------------------------
D-----------------------------------------------------------
A-----------------------------------------------------------
E-----------------------------------------------------------

        DO#m             MI
Si no estas puedo ver la libertad
        SI                 FA#m
si no estas ya no habra porque llorar
        DO#m             MI
si no estas al fin puedo respirar
        DO#m      MI (marcarlo) FA#m  DO#m  RE#m  MI
yo sin ti estoy bien.

Punteo Final: (v SIGNIFICA VIBRATOR)

E----7-5---7-5---7-5-6---7v-5v-9v-------------
B-7v----7v----7v------7v----------5v-7v-5v-7v-
G---------------------------------------------
D---------------------------------------------
A---------------------------------------------
E---------------------------------------------

NOTA: PARA SABER TOCAR LOS PUNTEOS LES RECOMIENDO ESCUCHR LA CANCION
PARA SACAR LOS TIEMPOS CHAU!

            
            
Suggest correction
Creating personal tab
Creating personal tab
You can edit any tab online and save it as your Personal.

You can edit, replace or remove any tab part or add personal notes – all changes will be seen only by you.

Personal tabs can be accessed anytime from any device, even offline.
Learn more »
Give kudos to tab author, rate the tab!
1 2 3 4 5
comments
print report bad tab
guest
Wanna post a correction for this tab? Suggest correction