Oops, an error
Loading. Please wait.

Quiero Mis Quinces tab

version 1
version 1

Whole song

by Kudai
43 views 1 this week
no commentswrite comment
1 2 3 4 5
3 more votes to show rating
add to favorites
×
Save as Personal and add changes to this tab that will be seen only by you. Learn more ›
×
You can save this tab as Personal to edit and correct it or add notes. All changes will be seen only by you. Learn more »
launch autoscroll
font size
0
reset
how to read this tab
guitar tuner
edit
Autoscroll
slow
fast
+/-
esc
set tempo
stop
Aqui les mando la correccion de la Primera guitarra
ya que en las demas esta un poco mal la
tonalidad original es REM

Intro
E ------------------------------------------------
B -7--8-7-5--------------8--10-8-7----------------
G ----------7-6-7-6-4--------------7-7-9-9---11-9-
D --------------------4---------------------------

Despues de:  "Recuerdos que hoy revelo al despertar..

E ------------------------------------
B ------5---4---3---2-----------------  ( Vibrato)
G ------------------------------------
D-------------------------------------

Despues de:  "Recuerdos que hoy revelo al despertar..

E -------12-------11-------10-------9-
B -12-------12-------12-------12------   Guitarra 1
G ------------------------------------
D-------------------------------------

E -------12-------11-------10-------9-
B -12-12----12-12----12-12----12-12---   Guitarra 2
G ------------------------------------   o Teclado
D-------------------------------------

EI ------------------------------------
BI ------------------10h12-10-8--------  Guitarra3
GI ------------------------------11-9---

Aqui sigue el solo de guitarra:

E -10-13-13-10-13-10--13-13-15-13-10-11-10---------
B ------------------------------------------13-11--
G -------------------------------------------------
D--------------------------------------------------

E -10-13-13-10-13-10--13-13-15-13-10-11-10-----------
B ------------------------------------------13-11-12-
G ---------------------------------------------------
D----------------------------------------------------

el Final de la cancion termina en MI

Quiero agredecer a una persona en especial su nombre
es "milena" y es mi enamorada , ya que ella me ayudo mucho.
y esa cancion se la dedico.  esfa_pj@
si quieren la parte del bajo escriban a mi correo.

            
            
Suggest correction
Creating personal tab
Creating personal tab
You can edit any tab online and save it as your Personal.

You can edit, replace or remove any tab part or add personal notes – all changes will be seen only by you.

Personal tabs can be accessed anytime from any device, even offline.
Learn more »
Give kudos to tab author, rate the tab!
1 2 3 4 5
comments
print report bad tab
guest
Wanna post a correction for this tab? Suggest correction