Oops, an error
Loading. Please wait.

Historias Iii chords

by Kuero
16 views 1 this week
no commentswrite comment
1 2 3 4 5
3 more votes to show rating
add to favorites
×
Save as Personal and add changes to this tab that will be seen only by you. Learn more ›
×
You can save this tab as Personal to edit and correct it or add notes. All changes will be seen only by you. Learn more »
launch autoscroll
font size
0
reset
transpose
0
reset
display chords
guitar tuner
edit
Autoscroll
slow
fast
+/-
esc
set tempo
stop
Strumming
There is no strumming pattern for this song yet. and get +5 IQ
                              Kuero 'Historias III'

INTRO 
e|--------------------------|
B|--------3--6--------------|
G|--5--3--2--5--5--3--------|
D|--5--3--0--3--5--3--3--5--|
A|--3--1--------3--1--3--5--|
E|--------------------1--3--|


Cuando empieza a cantar: 'Huye de la eskuela...', es esto;

e|------------------|   
B|--3---------------|   
G|--2----3----------|    Esto dura hasta el estribillo
D|--0----3---3---2--|  
A|-------1---3---0--|
E|-----------1------| 


El estribillo es cuando canta: 'Aprendí más en las calles...'

e|----------------------------|
B|----------------------------|
G|-------------5---3---5---3--|
D|--5-X-X-X----5---3---5---3--|
A|--5-X-X-X----3---1---3---1--|
E|--3-X-X-X-------------------|

LA PARTE DE SKA LO HACE CON RE FA LA# Y LA

DESPUES DE LA PARTE DE SKA VIENE ESTO:
e|--------------------|
B|--3--6-----6--------|
G|--2--5--3--5--------|
D|--0--3--3--3--3--2--|  X4
A|--------1-----3--0--|
E|--------------1-----|

Y la parte final de la canción es cuando canta: 'No es cultura ni es rentable...'

e|----------------------|
B|--3---6---------------|
G|--2---5---3-----------|
D|--0---3---3---3----2--|       AL FINAL AKABA EN RE
A|----------1---3----0--|
E|--------------1-------|

            
            
Suggest correction
Creating personal tab
Creating personal tab
You can edit any tab online and save it as your Personal.

You can edit, replace or remove any tab part or add personal notes – all changes will be seen only by you.

Personal tabs can be accessed anytime from any device, even offline.
Learn more »
Give kudos to tab author, rate the tab!
1 2 3 4 5
comments
print report bad tab
guest
Wanna post a correction for this tab? Suggest correction