Oops, an error
Loading. Please wait.

Hey Dude tab

version 2
version 2

Whole song

259 views 1 this week
no commentswrite comment
1 2 3 4 5
3 more votes to show rating
add to favorites
×
Save as Personal and add changes to this tab that will be seen only by you. Learn more ›
×
You can save this tab as Personal to edit and correct it or add notes. All changes will be seen only by you. Learn more »
launch autoscroll
font size
0
reset
how to read this tab
guitar tuner
edit
Autoscroll
slow
fast
+/-
esc
set tempo
stop
Author
Difficulty
Kula Shaker - Hey Dude  

Intro

e|--------|--------|--------|
B|--------|--------|--------|
G|--------|--------|--------|
D|--------|--------|--------|
A|--------|--------|--------|
E|--------|--------|--------|
  ^ ^ ^ ^  ^ ^ ^ ^  ^ ^ ^ ^  

e|--------------------------------|--------------------------------|
B|--------------------------------|--------------------------------|
G|----------------------------x-x-|x-x-x-x-x-x-x-x-x-x-x-x-x-x-x-x-|
D|----------------------------x-x-|x-x-x-x-x-x-x-x-x-x-x-x-x-x-x-x-|
A|----------------------------x-x-|x-x-x-x-x-x-x-x-x-x-x-x-x-x-x-x-|
E|----------------------------x-x-|x-x-x-x-x-x-x-x-x-x-x-x-x-x-x-x-| 
  ^       ^       ^       ^        ^       ^       ^       ^      

e|--------------------------------|--------------------------------|
B|--------------------------------|--------------------------------|
G|x-x-x-x-x-x-x-x-x-x---------x-x-|x-x-x-x-x-x-x-x-x-x-x-x-x-x-x-x-|
D|x-x-x-x-x-x-x-x-x-x---------x-x-|x-x-x-x-x-x-x-x-x-x-x-x-x-x-x-x-|
A|x-x-x-x-x-x-x-x-x-x-12/18\5-x-x-|x-x-x-x-x-x-x-x-x-x-x-x-x-x-x-x-|
E|x-x-x-x-x-x-x-x-x-x-12/18\5-x-x-|x-x-x-x-x-x-x-x-x-x-x-x-x-x-x-x-|  
  ^       ^       ^       ^        ^       ^       ^       ^      

e|------------------------|--------------------------------|
B|------------------------|--------------------------------|
G|x-x-x-x-----------------|12\\7---------------------------|
D|x-x-x-x-----------------|12\\7---------------------------|
A|x-x-x-x-7/////15-15-0---|--------------------------------|
E|x-x-x-x-7/////15-15-0---|--------------------------------|  
  ^       ^       ^        ^       ^       ^       ^      

e|--------------------------------|
B|--------------------------------|
G|--------------------------------|
D|--------------------------------|
A|4-4-4-5---5-6/8-10///---18\\6---|
E|4-4-4-5---5-6/8-10///---18\\6---|
  ^       ^       ^       ^   

e[|x-x-x-x----------x-x-x----------|x-x-x-x-------------------------|]
B[|x-x-x-x-8--------x-x-x-8--------|x-x-x-x-8-------8----8--8-------|] 
G[|x-x-x-x-10b12----x-x-x-10-------|x-x-x-x-9-------10---10-10--9---|] ==
D[|x-x-x-x----------x-x-x-10-------|x-x-x-x-10------10---10-10--10--|] x2
A[|--------------------------------|--------------------------------|] ==
E[|--------------------------------|--------------------------------|]
   ^       ^       ^       ^        ^       ^       ^       ^      

e[|x-x-x-x-11-------x-x-x----------|x-x-x-x-11----------------------|]
B[|x-x-x-x-8--------x-x-x--8-------|x-x-x-x-8-------8----8--8-------|]
G[|x-x-x-x-10b12----x-x-x-10-------|x-x-x-x-9-------10---10-10---9--|] ==
D[|x-x-x-x----------x-x-x-10-------|x-x-x-x-10------10---10-10--10--|] x2
A[|--------------------------------|--------------------------------|] ==
E[|--------------------------------|--------------------------------|]
   ^       ^       ^       ^        ^       ^       ^       ^      
Verse 1
 'All I have...'
e|--------------------------------|--------------------------------|
B|--------------------------------|------------------------3---0---|
G|--------------------------------|------------------------3---0---|
D|--------------------------------|------------------------3---0---|
A|--------------------------------|3-------------------------------|
E|3---------------1---------------|--------------------------------|
  ^       ^       ^       ^        ^       ^       ^       ^      
 
e|--------------------------------|--------------------------------|
B|--------------------------------|--------------------------------|
G|--------------------------------|--------------------------------|
D|--------------------------------|--------------------------------|
A|--------------------------------|--------------------------------|
E|--------------------------------|-----------------------15\----3-|
  ^       ^       ^       ^        ^       ^       ^       ^      
 
e|--------------------------------|--------------------------------|
B|--------------------------------|---------------------------13-13|
G|--------3-----0-----------------|---------------------------10-10|
D|--------3-----0-----------------|---------------------------12-12|
A|--------------------------------|--------------------------------|
E|--------------------------------|--------------------------------|
  ^       ^       ^       ^        ^       ^       ^       ^      
 
e|--------------------------------|--------------------------------|
B|13------------------------------|--------------------------------|
G|10------------------------------|--------------------------------|
D|12------------------------------|--------------------------------|
A|--------------------------------|-------------------15\---------3|
E|--------------------------------|-------------------15\---------3|
  ^       ^       ^       ^        ^       ^       ^       ^      
'Smell the rose...' 
e|x-x-x-x-15--x-x-x-x-x-x-15--x-x-|x-x-x-x-15--x-x-x-x-x-x-15h17-15|
B|x-x-x-x-15--x-x-x-x-x-x-15--x-x-|x-x-x-x-15--x-x-x-x-x-x-15h17-15|
G|x-x-x-x-15--x-x-x-x-x-x-15--x-x-|x-x-x-x-15--x-x-x-x-x-x-15h17-15|
D|--------------------------------|--------------------------------|
A|--------------------------------|--------------------------------|
E|--------------------------------|--------------------------------|
  ^       ^       ^       ^        ^       ^       ^       ^       

e|x-x-x-x-15--x-x-x-x-x-x-15--x-x-|x-x-x-x-15--x-x-x-x-x-x---------|
B|x-x-x-x-15--x-x-x-x-x-x-15--x-x-|x-x-x-x-15--x-x-x-x-x-x---------|
G|x-x-x-x-15--x-x-x-x-x-x-15--x-x-|x-x-x-x-15--x-x-x-x-x-x---------|
D|--------------------------------|--------------------------------|
A|--------------------------------|-----------------------18\-----3|
E|--------------------------------|-----------------------18\-----3|
  ^       ^       ^       ^        ^       ^       ^       ^      

e|x-x-x-x----------x-x-x----------|x-x-x-x-------------------------|
B|x-x-x-x-8--------x-x-x-8--------|x-x-x-x-8-------8----8--8-------|
G|x-x-x-x-10b12----x-x-x-10-------|x-x-x-x-9-------10---10-10--9---|
D|x-x-x-x----------x-x-x-10-------|x-x-x-x-10------10---10-10--10--|
A|--------------------------------|--------------------------------|
E|--------------------------------|--------------------------------|
  ^       ^       ^       ^        ^       ^       ^       ^      
'In heaven yeah...'                                'Well if it...'
e|x-x-x-x-11-------x-x-x----------|x-x-x-x-------------------------|
B|x-x-x-x-8--------x-x-x-8-----8--|x-x-x-x-8---8------5-12-0-------|
G|x-x-x-x-10b12----x-x-x-10----10-|x-x-x-x-10--10-----5-12-0-------|
D|x-x-x-x----------x-x-x-10----10-|x-x-x-x-10--10-----5-12-0-------|
A|--------------------------------|--------------------------------|
E|--------------------------------|--------------------------------|
  ^       ^       ^       ^        ^       ^       ^       ^      
Bridge
  '...feels like summer...'
e[|--------------------------------|--------------------------------|]
B[|11------11---11-11-x-10--10-x-x-|8------8-----8--8--x-10--10-x-x-|] 
G[|12------12---12-12-x-10--10-x-x-|9------9-----9--9--x-10--10-x-x-|] ==
D[|12------12---12-12-x-10--10-x-x-|10-----10----10-10-x-10--10-x-x-|] x3
A[|10------10---10-10-x------------|10-----10----10-10-x------------|] ==
E[|--------------------------------|--------------------------------|]
   ^       ^       ^       ^        ^       ^       ^       ^      

e|--------------------------------|--------------------------------|
B|11------11---11-11-x-10--10-x-x-|8------8-----8--8--x----x-x-----| 
G|12------12---12-12-x-10--10-x-x-|9------9-----9--9--x----x-x-----|
D|12------12---12-12-x-10--10-x-x-|10-----10----10-10-x----x-x-0-0-|
A|10------10---10-10-x------------|10-----10----10-10-x--------0-0-|
E|--------------------------------|----------------------------0-0-|
  ^       ^       ^       ^        ^       ^       ^       ^      

e|6---------------------------8---|--------------------------------|
B|6---------------------------8---|-----------------------------0--|
G|6---------------------------8---|-----------------------------0--|
D|5---------------------------7---|-----------------------------0--|
A|6---------------6-12-12-6---8---|---------------------0-5/11-----|
E|--------------------------------|---------------------0----------|
  ^       ^       ^       ^        ^       ^       ^       ^      
Chorus
'Hey Dude, well don't...'
e|--------------------------------|--------------------------------|
B|--------------------------------|-------------------6----6-------|
G|5-------5---5---5-------5---5---|8-------8-----8-8--7----7-------|
D|5-------5---5---5-------5---5---|8-------8-----8-8--8----8---0-0-|
A|3-------3---3---3-------3---3---|6-------6-----6-6--8----8---0-0-|
E|--------------------------------|----------------------------0-0-|
  ^       ^       ^       ^        ^       ^       ^       ^      
'losing my direction...'
e|--------------------------------|--------------------------------|
B|----------------6---6---6-------|--------------------------------|
G|8-------8-----8-7---7---7-------|8-------8---x-x-x-x-x-x-x-x-x-x-|
D|7-------7-----7-8---8---8---0-0-|7-------7---x-x-x-x-x-x-x-x-x-x-|
A|8-------8-----8-8---8---8---0-0-|8-------8---x-x-x-x-x-x-x-x-x-x-|
E|----------------------------0-0-|------------x-x-x-x-x-x-x-x-x-x-|
  ^       ^       ^       ^        ^       ^       ^       ^      
'Hey Dude, well I do...'
e|--------------------------------|--------------------------------|
B|--------5-----5-----------------|----------------------6-6-------|
G|--------3-----3-3---3---3---3-3-|8-------8-----8-x---x-7-7-------|
D|--------5-----5-3---3---3---3-3-|8-------8-----8-x---x-8-8---0-0-|
A|3---------------5---5---5---5-5-|6-------6-----6-x---x-8-8---0-0-|
E|--------------------------------|----------------------------0-0-|
  ^       ^       ^       ^        ^       ^       ^       ^     
'...treat me like a woman...'
e|--------------------------------|--------------------------------|
B|--------------------6---6-------|--------------------9-9-9-9-9-9-|
G|8-------8-----8-8-x-7---7-------|10------------------8-8-8-8-8-8-|
D|7-------7-----7-7-x-8---8---0-0-|10------------------7-7-7-7-7-7-|
A|8-------8-----8-8-x-8---8---0-0-|8-------------------8-8-8-8-8-8-|
E|----------------------------0-0-|--------------------------------|
  ^       ^       ^       ^        ^       ^       ^       ^      
Verse 2
'I was crossing...'
e|--------3---------3-----3-------|--------3---x-3-3-3---x---------|
B|--------3---------3-----3-------|--------3---x-3-3-3---x-3h5---5-|
G|--------3---------3-----3-------|--------3---x-3-3-3---x-3h5---5-|
D|--------3---------3-----3-------|--------3---x-3-3-3---x-3h5---5-|
A|--------------------------------|--------------------------------|
E|--------------------------------|--------------------------------|
  ^       ^       ^       ^        ^       ^       ^       ^      
'Images of tombstones...'
e|--------3-----------------------|--------------------------------|
B|--------3--------------13b15----|b15--------------------13p11----|
G|--------3-----------------------|----------------------------12--|
D|--------3-----------------------|--------------------------------|
A|--------------------------------|--------------------------------|
E|--------------------------------|--------------------------------|
  ^       ^       ^       ^        ^       ^       ^       ^      

e|------------------------3-------|--------3-----x---x-------------|
B|------------------------3-------|--------3-----x---x-------------|
G|12\-----0---------------3-------|--------3-----x---x-5b7-3----p0-|
D|------------------------3-------|--------3-----x---x-------------|
A|--------------------------------|--------------------------------|
E|--------------------------------|--------------------------------|
  ^       ^       ^       ^        ^       ^       ^       ^      

e|--------3---------------3-------|--------------------------------|
B|--------3---------------3-------|6------b8----------r6------11-11|
G|--------3---------------3-------|------------------------0--12-12|
D|--------3---------------3-------|------------------------0--12-12|
A|--------------------------------|------------------------0--10-10|
E|--------------------------------|------------------------0-------|
  ^       ^       ^       ^        ^       ^       ^       ^      

Bridge
  '...feels like summer...'
e[|--------------------------------|--------------------------------|]
B[|11------11---11-11-x-10--10-x-x-|8------8-----8--8--x-10--10-x-x-|] 
G[|12------12---12-12-x-10--10-x-x-|9------9-----9--9--x-10--10-x-x-|] ==
D[|12------12---12-12-x-10--10-x-x-|10-----10----10-10-x-10--10-x-x-|] x3
A[|10------10---10-10-x------------|10-----10----10-10-x------------|] ==
E[|--------------------------------|--------------------------------|]
   ^       ^       ^       ^        ^       ^       ^       ^      

e|--------------------------------|--------------------------------|
B|11------11---11-11-x-10--10-x-x-|8------8-----8--8--x----x-x-----| 
G|12------12---12-12-x-10--10-x-x-|9------9-----9--9--x----x-x-----|
D|12------12---12-12-x-10--10-x-x-|10-----10----10-10-x----x-x-0-0-|
A|10------10---10-10-x------------|10-----10----10-10-x--------0-0-|
E|--------------------------------|----------------------------0-0-|
  ^       ^       ^       ^        ^       ^       ^       ^      

e|6---------------------------8---|--------------------------------|
B|6---------------------------8---|-----------------------------0--|
G|6---------------------------8---|-----------------------------0--|
D|5---------------------------7---|-----------------------------0--|
A|6---------------6-12-12-6---8---|---------------------0-5/11-----|
E|--------------------------------|---------------------0----------|
  ^       ^       ^       ^        ^       ^       ^       ^      
Chorus
 'Hey Dude, well don't...'
e|--------------------------------|--------------------------------|
B|--------------------------------|-------------------6----6-------|
G|5-------5---5---5-------5---5---|8-------8-----8-8--7----7-------|
D|5-------5---5---5-------5---5---|8-------8-----8-8--8----8---0-0-|
A|3-------3---3---3-------3---3---|6-------6-----6-6--8----8---0-0-|
E|--------------------------------|----------------------------0-0-|
  ^       ^       ^       ^        ^       ^       ^       ^      

e|--------------------------------|--------------------------------|
B|----------------6---6---6-------|--------------------------------|
G|8-------8-----8-7---7---7-------|8-------8---x-x-x-x-x-x-x-x-x-x-|
D|7-------7-----7-8---8---8---0-0-|7-------7---x-x-x-x-x-x-x-x-x-x-|
A|8-------8-----8-8---8---8---0-0-|8-------8---x-x-x-x-x-x-x-x-x-x-|
E|----------------------------0-0-|------------x-x-x-x-x-x-x-x-x-x-|
  ^       ^       ^       ^        ^       ^       ^       ^      

e|--------------------------------|--------------------------------|
B|--------5-----5-----------------|----------------------6-6-------|
G|--------3-----3-3---3---3---3-3-|8-------8-----8-x---x-7-7-------|
D|--------5-----5-3---3---3---3-3-|8-------8-----8-x---x-8-8---0-0-|
A|3---------------5---5---5---5-5-|6-------6-----6-x---x-8-8---0-0-|
E|--------------------------------|----------------------------0-0-|
  ^       ^       ^       ^        ^       ^       ^       ^     
 '...treat me like a woman...'    '...feel like a man...'
e|--------------------------------|--------------------------------|
B|--------------------6---6-------|10--10------6-------------------|
G|8-------8-----8-8-x-7---7-------|10--10------7-------x-x-x-x-x-x-|
D|7-------7-----7-7-x-8---8---0-0-|10--10--0---8-------x-x-x-x-x-x-|
A|8-------8-----8-8-x-8---8---0-0-|8---8---0---8-------x-x-x-x-x-x-|
E|----------------------------0-0-|--------0-----------x-x-x-x-x-x-|
  ^       ^       ^       ^        ^       ^       ^       ^      
'...can't understand...'
e|--------------------------------|--------------------------------|
B|13--13------6-----6-6-----------|--------5-----5-x-x-------------|
G|13--13------7-----7-7---x-x-----|5-------5-----5-x-x-3---3---x-x-|
D|13--13--0---8-----8-8---x-x-0-0-|5-------5-----5-x-x-3---3---x-x-|
A|11--11--0---8-----8-8---x-x-0-0-|3-------3-----3-x-x-1---1---x-x-|
E|--------0---------------x-x-0-0-|--------------------------------|
  ^       ^       ^       ^        ^       ^       ^       ^      
 
e|--------------------------------|--------------------------------|
B|--------2-----2-x-x-------------|--------5-----5-x-x-------------|
G|2-------2-----2-x-x-5---5---x-x-|5-------5-----5-x-x-3---3---x-x-|
D|2-------2-----2-x-x-6---6---x-x-|5-------5-----5-x-x-3---1---x-x-|
A|0-------0-----0-x-x-6---6---x-x-|3-------3-----3-x-x-1---1---x-x-|
E|--------------------4---4---x-x-|--------------------------------|
  ^       ^       ^       ^        ^       ^       ^       ^      
         '...sing it to me honey...'
e|--------------------------------|
B|--------2-----2-x-x-------------|
G|2-------2-----2-x-x-5---5---x-x-|
D|2-------2-----2-x-x-6---6---x-x-|
A|0-------0-----0-x-x-6---6---x-x-|
E|--------------------4---4---x-x-|
  ^       ^       ^       ^   
 Solo/break
e[|--------------------------------|--------------------------------|]
B[|--------------------------------|--------------------------------|]
G[|3-------3-----3-----------------|------------3-------------------|] ==
D[|3h5-----3-----3-----------------|------------3-------------------|] x2
A[|----------------3p1-------------|3-----5-----------5-----4---3---|] ==
E[|--------------------3---3-------|--------------------------------|]
   ^       ^       ^       ^        ^       ^       ^       ^      
 
e|----------------3---------------|--------------------------------|
B|----------------3-------3h5-----|3-------------------------------|
G|3---x-3---x-3---5p3---3-3h5-----|3---------------5-0-------------|
D|3---x-3---x-3-------5-----------|-------------------3p0-3h4p0----|
A|--------------------------------|----------------------------3p0-|
E|--------------------------------|--------------------------------|
  ^       ^       ^       ^        ^       ^       ^       ^       
 
e|--------------------------------|--------------------------------|
B|--------------------------------|--------------------------------|
G|----------------3----------0----|----------------0-------3----p0-|
D|----------------3-----------3p0-|2----------b3---0-------3----p0-|
A|----------3h5-------------------|------------------5/14----------|
E|3-------------------------------|--------------------------------|
  ^       ^       ^       ^        ^       ^       ^       ^      

e|----------------------------------------------------------------|
B|--------15--15------15----------15----------15------------------|
G|15------15--15------15--15------15--15------15--15------15------|
D|15-h17------------------15-h17------15-h17------15-h17--15------|
A|----------------------------------------------------------------|
E|----------------------------------------------------------------|
  ^               ^               ^               ^

e|----------------------------------------------------------------|
B|17------17--17--17-h18------18--17------17--17--18--18--18--18--|
G|17------17--17--17-h18------18--17------17--17--18--18--18--18--|
D|17------17--17--17-h18------18--17------17--17--18--18--18--18--|
A|----------------------------------------------------------------|
E|----------------------------------------------------------------|
  ^               ^               ^               ^
   
e|15------15----------15----------15----------15----------x---x---|
B|15-h17------15-h17------15-h17------15-h17------15-h17--x---x---|
G|----------------------------------------------------------------|
D|----------------------------------------------------------------|
A|----------------------------------------------------------------|
E|----------------------------------------------------------------|
  ^               ^               ^               ^
  
e|15------15-----15--15--15--18b20--------------------------------|
B|18b20---18b20rp20--20--20---------------------------------------|
G|----------------------------------------------------------------|
D|----------------------------------------------------------------|
A|---------------------------------------17\-------------\0-------|
E|---------------------------------------17\-------------\0-------|
  ^               ^               ^               ^
'Catch the sun...'
e|6---------------------------8---|--------------------------------|
B|6-----------------------x---8---|--------------------------------|
G|6-----------------------x---8---|--------------------------------|
D|5-----------------------x---7---|------------------------0-------|
A|6-----------------------x---8---|-----------0-------|
E|--------------------------------|------------------------0-------|
  ^       ^       ^       ^        ^       ^       ^       ^      
Chorus
 'Hey Dude, well don't...'
e|--------------------------------|--------------------------------|
B|--------------------------------|-------------------6----6-------|
G|5-------5---5---5-------5---5---|8-------8-----8-8--7----7-------|
D|5-------5---5---5-------5---5---|8-------8-----8-8--8----8---0-0-|
A|3-------3---3---3-------3---3---|6-------6-----6-6--8----8---0-0-|
E|--------------------------------|----------------------------0-0-|
  ^       ^       ^       ^        ^       ^       ^       ^      

e|--------------------------------|--------------------------------|
B|----------------6---6---6-------|--------------------------------|
G|8-------8-----8-7---7---7-------|8-------8---x-x-x-x-x-x-x-x-x-x-|
D|7-------7-----7-8---8---8---0-0-|7-------7---x-x-x-x-x-x-x-x-x-x-|
A|8-------8-----8-8---8---8---0-0-|8-------8---x-x-x-x-x-x-x-x-x-x-|
E|----------------------------0-0-|------------x-x-x-x-x-x-x-x-x-x-|
  ^       ^       ^       ^        ^       ^       ^       ^      

e|--------------------------------|--------------------------------|
B|--------5-----5-----------------|----------------------6-6-------|
G|--------3-----3-3---3---3---3-3-|8-------8-----8-x---x-7-7-------|
D|--------5-----5-3---3---3---3-3-|8-------8-----8-x---x-8-8---0-0-|
A|3---------------5---5---5---5-5-|6-------6-----6-x---x-8-8---0-0-|
E|--------------------------------|----------------------------0-0-|
  ^       ^       ^       ^        ^       ^       ^       ^     

e|--------------------------------|--------------------------------|
B|--------------------6---6-------|------------6-------x-x-x-x-x-x-|
G|8-------8-----8-8-x-7---7-------|8---8---x---7-------x-x-x-x-x-x-|
D|7-------7-----7-7-x-8---8---0-0-|7---7---x---8-------x-x-x-x-x-x-|
A|8-------8-----8-8-x-8---8---0-0-|8---8---x---8-------x-x-x-x-x-x-|
E|----------------------------0-0-|--------------------------------|
  ^       ^       ^       ^        ^       ^       ^       ^      
Outro
'Hey dude, no...'
e|--------------------------------|--------------------------------|
B|--------------------------------|--------------------6---6-------|
G|5-------5---5---3-------3---3---|8-------8-----8-8---7---7-------|
D|5-------5---5---3-------3---3---|8-------8-----8-8---8---8---0-0-|
A|3-------3---3---5-------5---5---|6-------6-----6-6---8---8---0-0-|
E|--------------------------------|----------------------------0-0-|
  ^       ^       ^       ^        ^       ^       ^       ^      
 
e|--------------------------------|--------------------------------|
B|----------------6---6---6-------|10----10----10----x-6-6-6-6-----|
G|8-------8-----8-7---7---7-------|10----10----10----x-7-7-7-7-0-0-|
D|7-------7-----7-8---8---8---0-0-|10----10----10----x-8-8-8-8-0-0-|
A|8-------8-----8-8---8---8---0-0-|8-----8-----8-----x-8-8-8-8-----|
E|----------------------------0-0-|--------------------------------|
  ^       ^       ^       ^        ^       ^       ^       ^       
 
e|--------------------------------|--------------------------------|
B|--------------------------------|--------------------3---3-0-0---|
G|5-------5-------5---5---3-------|8-------8-----------3---3-0-0---|
D|5-------5-------5---5---3-------|8-------8-----------3---3-0-0---|
A|3-------3-------3---3---5-------|6-------6-----------------------|
E|--------------------------------|--------------------------------|
  ^       ^       ^       ^        ^       ^       ^       ^      
 
e|--------------------------------|--------------------------------|
B|10------------------------------|10------------------------------|
G|10------------------------------|10------------------------------|
D|10------------------------------|10------------------------------|
A|8-------------------------------|8-------------------------------|
E|--------------------------------|--------------------------------|
  ^       ^       ^       ^        ^       ^       ^       ^       
 
e|--------------------------------|--------------------------------|
B|--------5---5-5-----------------|------------------------10------|
G|--------5---5-5---------3---3---|8-------8---0-0-7---x-x-10------|
D|5---5---5---5-5-3-------3---3---|8-------8---0-0-8---x-x-10--0-0-|
A|3---3---3---3-3-5-------5---5---|6-------6---0-0-8---x-x-8---0-0-|
E|--------------------------------|--------------------------------|
  ^       ^       ^       ^        ^       ^       ^       ^      
 
e|--------------------------------|--------------------------------|
B|17--------------16\-------------|\5------------------------------|
G|17--------------16\-------------|\5------------------------------|
D|17--------------16\-------------|\5------------------------------|
A|--------------------------------|--------------------------------|
E|--------------------------------|--------------------------------|
  ^       ^       ^       ^        ^       ^       ^       ^
Suggest correction
Creating personal tab
Creating personal tab
You can edit any tab online and save it as your Personal.

You can edit, replace or remove any tab part or add personal notes – all changes will be seen only by you.

Personal tabs can be accessed anytime from any device, even offline.
Learn more »
Give kudos to tab author, rate the tab!
1 2 3 4 5
comments
print report bad tab
guest
You may want to rate the tab now too:
select rating
Wanna post a correction for this tab? Suggest correction