Oops, an error
Loading. Please wait.

Hush bass

2,523 views 15 this week
no commentswrite comment
1 2 3 4 5
1 last vote to show rating
add to favorites
×
Save as Personal and add changes to this tab that will be seen only by you. Learn more ›
×
You can save this tab as Personal to edit and correct it or add notes. All changes will be seen only by you. Learn more »
launch autoscroll
font size
0
reset
guitar tuner
backing track
0:00
0:00
edit
Autoscroll
slow
fast
+/-
esc
set tempo
stop
Author
Difficulty
Hush
Song Originally recorded by Billy Joe Royal in The U.S. and
Deep Purple in UK. This Version by Kula Shaker reached number 2
In UK 1997. Bass performance Alonza Bevan. Tab by bass50611
Not exact to original for very close. Great rock track.
Comments at bass254@btinternet.com 

Intro:              [          Play This Bit x4            ]
G|------------------|---------------------------------------
D|-GUITAR VOCALS----|---------------------------------------
A|------START-------|---------------------------------------
E|---------------1/-|-8--8--8--88-8-8-7---8--8--8--88-8-8-7-

Pre-Chorus 1:                                (Play This x2)
G|-----------------------------------------------------------
D|-----------8--8--------------------------------------------
A|------6--6------8--8---------------------------------------
E|-4--4----------------8--8--8--88-8-8-7---8--8--8--88-8-8-7-

Verse:                  (Play This Bit x2)
G|---------------------------------------
D|---------------------------------------
A|---------------------------------------
E|-8--8--8--88-8-8-7---8--8--8--88-8-8-7-

Repeat Pre-Chorus:

Chorus:                                       (Play This x2)
G|----------------------------------------------------------
D|----------------------------------------------------------
A|----------------8-8-8-----------------------8-8-8---------
E|-8-8-8---8-8-8--------6-6-6-7-8-8-8---8-8-8-------6-6-6-7-

Bridge:
G|----------------------------------------------------------
D|-9/10-9/10-9/10\-----9/10-9/10-9/10\------9/10-9/10-9/10\-
A|----------------------------------------------------------
E|----------------------------------------------------------

G|-------------------------
D|-9/10-9/10-9/10-----10-9-
A|------------------10-----
E|-------------------------

Solo:                                                     (Play This x2)
G|----------------------------------------------------------------------
D|--------------------------------------------------------10-8-7--------
A|--------------------------------------------------------------10-8-7--
E|-8--8--8--88-8-8-7-8--8--8--88-8-8-7-8--8--8--88-8-8-7-8------------7-

Repeat Chorus:

Repeat Bridge:

Repeat Solo:

Pre-Chorus 2:                                              (Play This x2)
G|-----------------------------------------------------------------------
D|-----------------8-8-8-8-----------------------------------------------
A|---------6-6-6-6---------8-8-8-8---------------------------------------
E|-4-4-4-4-------------------------8--8--8--88-8-8-7---8--8--8--88-8-8-7-

Outro:
G|---------------------------------------------------------------
D|-------------------------------8-8-8-8-8-8-8-8-----------------
A|----------------6-6-6-6-6-6-6-6---------------8-8-8-8-8-8------
E|-4-4-4-4-4-4-4-4-----------------------------------------6-7-8-


            
            
Suggest correction
Creating personal tab
Creating personal tab
You can edit any tab online and save it as your Personal.

You can edit, replace or remove any tab part or add personal notes – all changes will be seen only by you.

Personal tabs can be accessed anytime from any device, even offline.
Learn more »
Give kudos to tab author, rate the tab!
1 2 3 4 5
comments
print report bad tab
guest
You may want to rate the tab now too:
select rating
Wanna post a correction for this tab? Suggest correction