Oops, an error
Loading. Please wait.

Last Farewell Tab

713 views 3 this week
no commentswrite comment
1 2 3 4 5
2 more votes to show rating
add to favorites
launch autoscroll
font size
0
reset
how to read this tab
guitar tuner
Autoscroll
slow
fast
+/-
esc
set tempo
stop
Author
Difficulty
novice
Kula Shaker - Last Farewell


INTRO

Dm  A7    \
            x2 (see below for G7add9 chord)
F G7add9  /

e|-------------------10----------10----------10----------10----------10----------10---------9---|
B|-------10-------10----------10----------10----10----------------10----10----10---------10-----|
G|-10----------12-------12-10-------10-12-------------10-------12----------10-------10-9------9-|
D|----12----12-------------------------------------12-------12----------------------------------|
A|----------------------------------------------------------------------------------------------|
E|----------------------------------------------------------------------------------------------|

     e|-------10------------10----------------------------------10----------10-----------------------|
     B|-------10---------10-------------10---------10-----------10-------10-------10----10-----------|
     G|----10-------10h12------12----10---------10-----------10-------12-------12-10-10-10-----------|
gt.1 D|-12-------12---------------10-------10-9-------9-10h12------12----------------10-------7-7-7--|
     A|---------------------------------------------------------------------------------------7-7-7--|
     E|---------------------------------------------------------------------------------------5-5-5--|

     e|----------------------------------------------------------------------------------------------|
     B|-----------------------------------------------------------------------------------------6--8-|
     G|---------------------------------------------------------------------------------------7------|
gt.2 D|----------------------------------------------------------------------------------------------|
     A|----------------------------------------------------------------------------------------------|
     E|----------------------------------------------------------------------------------------------|


INTRO SOLO

   Dm  G7add9   F      G7add9     Dm   G7add9   F      A         Dm G7add9    F        G7add9   Dm

e|----------------------------------------------------------5---------------------------------7-5-|
B|-8fb~-----------5h6p5-----------------------------------5---8fb8-------5h6p5----------------6-6-|
G|---------------------7-----5h7p5---------------------4/6--------------------7-----------5-7-7-7-|
D|--------------------------------7------------------------------------------------5h7p5h7--------|
A|------------------------------------------------------------------------------------------------|
E|------------------------------------------------------------------------------------------------|


      G7add9   F         A      Dm   G7add9   F        G7add9  Dm   G7add9   F   A

                                      / tremolo picking\\\\\\\\\\\\\\\\\\\\\\\  
e|----12-12----13---13---9--9-----------------10-------13-----------------------------------------|
B|----12-12----13---13---10-10-------13-----------------------------------------------------------|
G|----12-12----14---14---9--9---------------------------------------------------------------------|
D|------------------------------------------------------------------------------------------------|
A|------------------------------------------------------------------------------------------------|
E|------------------------------------------------------------------------------------------------|


VERSE 1

Dm G7add9 F A

        Dm          G7add9
If we stand here together 
       F                    A
We may say our last farewell 
         Dm         G7add9
To the lives of illusion 
           F                   G7add9  A
And that time we spent in hell 


CHORUS
         Dm7           G
Will we arise in our time 
         F                A 
At the dawn of another meaning 
      Dm             G7add9
And a great Hossanah 
    F        A     Dm
The great Hossanah 
    Dm             G
The great Hossanah 
    F        A     Dm 
The great Hossanah


OUTRO

Dm  G7add9  \ 
F   G7add9   \ x2 (the lead guitar strums the same notes from the end of the intro solo)
Dm  G7add9   /
F   A       /


Dm  A7    \
            x2
F G7add9  /


end on A7

____________________________________________________

  G7add9
e|--------|
B|--10----|
G|--10----|
D|--9-----|
A|--10----|
E|--------|


Suggest correction
Give kudos to tab author, rate the tab!
1 2 3 4 5
comments
print report bad tab
guest
You may want to rate the tab now too:
select rating
Wanna post a correction for this tab? Suggest correction