Oops, an error
Loading. Please wait.

Chiquilla bass

174 views 1 this week
no commentswrite comment
1 2 3 4 5
3 more votes to show rating
add to favorites
×
Save as Personal and add changes to this tab that will be seen only by you. Learn more ›
×
You can save this tab as Personal to edit and correct it or add notes. All changes will be seen only by you. Learn more »
launch autoscroll
font size
0
reset
guitar tuner
edit
Autoscroll
slow
fast
+/-
esc
set tempo
stop
Banda un compa m pidio el bajeo d esta rola, asi q ai les va
esta facil, ai les pongo q acordes son, c repiten en toda la
rola, la letra ps ya se la saben asi q sts sencilla y q creen
se la dedico a mi niña

            "KARINA ZARCO JIMENEZ"

"chiquilla fui a verte y me dijiste q no te dejaron salir",
  jajajaja  ya ni a los XV años fuimos jaja ni pex


"chiquilla, te quiero, mi cielo
chiquilla, te espero, sin ti yo me muero"


va y dice asi:

INTRO   X2

   C          Em       F        G
E------------0-0-3----1-1------3-3--------------
A--3--3------------2-----0-3------2-5-----------
D-------2-5-------------------------------------
G-----------------------------------------------

  C                     Em         F          G
E---------------------0-0-3-------1-1--------3-3-----
A--3--3---------------------2--------0-3--------2-5--
D-------2-5------------------------------------------
G----------------------------------------------------
Chiquilla vine a verte, pero me dicen que tu no vas a salir


  C                     Em         F         G
E---------------------0-0-3-------1-1--------3-3-----
A--3--3---------------------2--------0-3--------2-5--
D-------2-5------------------------------------------
G----------------------------------------------------


  C                    Em          F         G
E---------------------0-0-3-------1-1--------3-3-----
A--3--3---------------------2--------0-3--------2-5--
D-------2-5------------------------------------------
G----------------------------------------------------
me dicen que te olvide, que no valgo la pena q no piense en ti


asi va todo y cambia cuando llegas a

   F        G        F           G               F
E-1-1------3-3-------1-1---------3-3-------------1-1---
A-----0-3-----2-5--------0-3---------2-5------------0-3
D------------------------------------------------------
G------------------------------------------------------
ay ay ay, ay mi vida debo verte a escondidas, lo que sea

     G            C        C
E----3-3------------------------------
A--------2-5-----3-3-------3-3--------
D--------------------2-5-------2-5----
G-------------------------------------
  yo daria por ti....


  F        G        F           G               F
E-1-1------3-3-------1-1---------3-3-------------1-1---
A-----0-3-----2-5--------0-3---------2-5------------0-3
D------------------------------------------------------
G------------------------------------------------------
ay ay ay, ay me muero quiero verte y no puedo no m puedo
     G            C        C
E----3-3------------------------------
A--------2-5-----3-3-------3-3--------
D--------------------2-5-------2-5----
G-------------------------------------
  acercar a ti....


el resto de la rola es = asi c repite

            
            
Suggest correction
Creating personal tab
Creating personal tab
You can edit any tab online and save it as your Personal.

You can edit, replace or remove any tab part or add personal notes – all changes will be seen only by you.

Personal tabs can be accessed anytime from any device, even offline.
Learn more »
Give kudos to tab author, rate the tab!
1 2 3 4 5
comments
print report bad tab
guest
Wanna post a correction for this tab? Suggest correction