Oops, an error
Loading. Please wait.

Contigo tab

32 views 1 this week
no commentswrite comment
1 2 3 4 5
3 more votes to show rating
add to favorites
×
Save as Personal and add changes to this tab that will be seen only by you. Learn more ›
×
You can save this tab as Personal to edit and correct it or add notes. All changes will be seen only by you. Learn more »
launch autoscroll
font size
0
reset
how to read this tab
guitar tuner
edit
Autoscroll
slow
fast
+/-
esc
set tempo
stop
INTRO
E-----------0------------------------------------------
B--------1---------------------------------------------
g------2-------------x4---------------------------------
d----2------------------------------------------------
a--0--------------------------------------------------

E----1-3--0-1-3--0-1-3-0-1---7--8--5-7--8--5-7--8---5-7
B-33-3-5--0-3-5--0-3-5-0-3---9-10--7-9-10--7-9-10---7-9-
g-------------------------------------------------------


E-12------10-------8-7--8-10--8------------------------
B-13?(x5)-12?(x5)-10-9-10-12-10------------------------------
g-------------------------------------------

E----1-3--0-1-3--0-1-3-0-1---7--8--5-7--8--5-7--8---5-7----------
B----3-5--0-3-5--0-3-5-0-3---9-10--7-9-10--7-9-10---7-9------------
g----------------------------------------------------------------


E--12--16--15--14--13--12-----------------------------
B--------------------------X2---------------------------
g--12--15--14--13--12--12-------------------------------


Hoy yo te vi pasar
sonriente y feliz al
caminar,

E--12-12-12--10-10-10----8--8--8------------------------
B--13-13-13--12-12-12---10-10-10------------------------
g----------------------------------11-11-11-9-7-9-10-9--

 tu con tu
nuevo amor

E--15-15-15--13-13-13--------------------------
B----------------------------------------------
g----------------------------------------------

 y yo casi
a punto de llorar
E---------------------------------------------------------
B---------------------------------------------------------
g-55555---10-10-9-7-9-9-7-5--------------------------------

Como quisiera borrar el
pasado y el mal quitarte
tus penas y volver a estar
contigo
E-----------9-11-12--13-12-13-12-13-12-10-8-7-5---------
B--9-11-12----------------------------------------------
g-------------------------------------------------------

Pero es muy tarde yo se tu
Ya no volverás


E-----------------------------------------
B-----------------------------------------
g--10-10/12-12-10-9-----------------------
 Y todo lo
Que a mi me queda es soñar
Contigo

E---------------------------------------------------------
B--10-10-10-10-10-10----12-13--10-12-13--10-12--12-10-8/10-
g---------------------------------------------------------

INTRO.


E----1-3--0-1-3--0-1-3-0-1---7--8--5-7--8--5-7--8---5-7-----
B----3-5--0-3-5--0-3-5-0-3---9-10--7-9-10--7-9-10---7-9-----
g---------------------------------------------------------

E-12------10-------8-7--8------------8----10-----8------10
B-13?(x5)-12?(x5)-10-9-10--10-10-10----10----10-----10------
g-----------------------------------------------------------

Tu merecias mas, yo nunca
te supe valorar,

E-----------------------------------------
B---12---12--10-12-10---10-12-10----------
G-11------------------------------------------
 siempre
me diste amor y yo solo te
hice llorar
E-----------------------------------------
B----------------------------------------
G-55555--10--10-9-7-9-9-7-5------------------
CORO
Como quisiera borrar el
pasado y el mal, quitarte
tus penas y volver a estar
contigo
E--12-12-12--10-10-10----8--8--8------8--
B--13-13-13--12-12-12---10-10-10----10--
g----------------------------------9-----
Pero es muy tarde yo se tu
ya no volveras

E-----------------------------------------
B--10-10----------------------------------
g--10-10--12--10-9------------------------

y todo lo
que a mi me queda es soñar
contigo, contigo

SOLO

E--------------------------------------------
B-----------------------9-11-13/15-----------
G--9-9-9-9-9--9-11-13------------------------

E------------------------------------------
B-15-13-12--15-13-12--15-13-12--15-12-17---
G-------------------------------------------


E----------------------------------------13-15-16-
B-17/18-17--15-15/17-15-13-13--13-15-16-----------
g-------------------------------------------------


E-17-17-17--15-15-15--13-13-13--12-12-12---13-12-10-12-
B------------------------------------------------------
g------------------------------------------------------

E--10-8-7-10----------------------------------
B------------12-10-9-10/12--------------------
G---------------------------------------------

E-----------------------------------------------------------
B--10-10-9--6-6-5--5-6-6/8-6--66-5-6-5---5-5-5--6-6-6?5-5-5-
G-----------------------------------------------------------

Como quisiera borrar el
pasado y el mal, quitarte
tus penas y volver a estar
contigo, contigo

E--15-14-13-12-11--11-11/12--------------------------
B----------------------------------------------------
G--14-13-12-11-10--10-10/11--------------------------

Pero es muy tarde yo se
tu ya no volveras

E-----------------------------------
B--10-10-12-10-9--------------------
G-----------------------------------


 y todo lo
que a mi me queda es soñar
contigo


E--8-10-8-10-8-10-10/12--12-12-12--10-10--7-7--5-5--------
B------------------------------------------------------
G---------------------------------------------------------


E--12-12-12--10-10-10----8--8--8------8------------------
B--13-13-13--12-12-12---10-10-10----10--------------------
g----------------------------------9--------------------  END

BUENO ESPERO Q SEQUEN ESTA ROLA Y Q LES SIRVA UN SALUDO PARA MI NOVIA

#################ANA AZUCENA CARRILLO FERNÁNDEZ #####################
        ##################TE    AMO #########################
CUALQUIER COMENTARIO ESCRIBAN A anagus_love@

            
            
Suggest correction
Creating personal tab
Creating personal tab
You can edit any tab online and save it as your Personal.

You can edit, replace or remove any tab part or add personal notes – all changes will be seen only by you.

Personal tabs can be accessed anytime from any device, even offline.
Learn more »
Give kudos to tab author, rate the tab!
1 2 3 4 5
comments
print report bad tab
guest
Wanna post a correction for this tab? Suggest correction