Oops, an error
Loading. Please wait.

Oh No tab

31 views 1 this week
no commentswrite comment
1 2 3 4 5
3 more votes to show rating
add to favorites
×
Save as Personal and add changes to this tab that will be seen only by you. Learn more ›
×
You can save this tab as Personal to edit and correct it or add notes. All changes will be seen only by you. Learn more »
launch autoscroll
font size
0
reset
how to read this tab
guitar tuner
edit
Autoscroll
slow
fast
+/-
esc
set tempo
stop
Q PEX BANDA, otra vez yo jeje sta rola m la pidieron
q pasa banda animense saquen mas rolas d stos weyes
no stan dificiles, solo varia el rasgueo, pues sta
correcta como todas la que he mandado y c la kiero
dedicar a "TAHIMY", es una amiga y le gustan muxo
los kumbia kings asi que pues ahi c la mando

"KIERO SABER SI PIENSAS EN MI SI ERES FELIZ
SI M XTRAÑAS COMO YO A TI"

saludos a la facu de derecho "campus UAEM"
A BOGART, ALEX, YESSI Y RAFA


"ORALESH QUE"


el intro ellos lo hacen con el teclado, pero aki
en la guitarra, c toca = solo q tokenlo como si
fuera arpegio


    F      Am        A#           C
E-1---------------------------------------------
A--3-------0--------3-0-1---------3-------------
D---3--3----2---2--------3---3-----5------------
G-------2----2---2--------3---3-----5------7----
B----1---1----1------------3---------5----6-4---
e-------------------------------1------6-5------

 el tiempo pasa y no te puedo olvidar


  F        Am        A#         C         F
E-1----------------------------------------1-----
A--3-------0--------3-0-1--------3---------3-----
D---3--3----2---2--------3--3-----5--------3-----
G-------2----2---2--------3--3-----5-----7-2-----
B----1---1----1------------3--------5-5-6--1-----
e------------------------------1-----6-----1-----

ooooooooooohhhhh nooooooo no m vuelvo a enamorar

A#        Am   C7     A#    Am     C7

E----------------------------------------------
A----------------------------------------------
D----------------------------------------------
G-13----------10-12-----10-12-10---------------
B---9-10-13-11-----11-10-----------------------
e----------------------------------------------


     F                   Am
Quiero saber si piensas en mi
        A#                 C
si eres feliz, si me extrañas
           F
como yo a ti, estoy aqui
              Am          A#
muriendome en esta tarde gris
     C
sin saber de ti


  A#      Am       C7
porque tenias que partir
 A#      Am       C7
como poder seguir sin ti
 A#      Am       C7
mi corazon no va a latir
 A#              C
porque tu no estas aqui


     F
oohhhhhooooooo nooooooo
        Am        A#
no me vuelvo a enamorar
   C      F
lo tengo que aceptar
                       Am
que nada sera igual   (sin ti)
       A#            C
no me vuelvo a enamorar  ohhhoooo   noooo


puente:  F Am   A#  C
solo:

E----------------------------------------------
A----------------------------------------------
D----------------------------------------------
G--------------------11------10-12-10----------
B----------12-10-12----9-10-9------------------
e-9-10-12-9--------9---------------------------

   F
como empezar de nuevo
     Am      A#
si nadie ocupara
               C
por nunca tu lugar


  A#      Am       C7
porque tenias que partir
 A#      Am       C7
como poder seguir sin ti
 A#      Am       C7
mi corazon no va a latir
 A#              C
porque tu no estas aqui


     F
oohhhhhooooooo nooooooo
        Am        A#
no me vuelvo a enamorar
   C      F
lo tengo que aceptar
                       Am
que nada sera igual   (sin ti)
       A#            C
no me vuelvo a enamorar  ohhhoooo   noooo

            
            
Suggest correction
Creating personal tab
Creating personal tab
You can edit any tab online and save it as your Personal.

You can edit, replace or remove any tab part or add personal notes – all changes will be seen only by you.

Personal tabs can be accessed anytime from any device, even offline.
Learn more »
Give kudos to tab author, rate the tab!
1 2 3 4 5
comments
print report bad tab
guest
Wanna post a correction for this tab? Suggest correction