Oops, an error
Loading. Please wait.

Lilium Tab

version 1
version 1

Whole song

Interactive

4,910 views 1 this week
no commentswrite comment
1 2 3 4 5
please rate
add to favorites
launch autoscroll
font size
0
reset
how to read this tab
guitar tuner
Autoscroll
slow
fast
+/-
esc
set tempo
stop
Help us to improve Ultimate-Guitar.com Take our survey!
×
Author
Difficulty
intermediate
e---9------------------9------------------------------------------|
B-7---9-----10-10----7---9-9----10-12-10--------------------------|
G---------------------------------------11------------------------|
D-----------------------------------------------------------------|
A-----------------------------------------------------------------|
E-----------------------------------------------------------------|

e-----------------------------------------------------------------|
B--9--------7--------------9-10-12-10---9-------------------------|
G----9-7-9----7-6-7-9-11------------------------------------------|
D-----------------------------------------------------------------|
A-----------------------------------------------------------------|
E-----------------------------------------------------------------|

e---9------------------9------------------------------------------|
B-7---9-----10-10----7---9-9----10-12-10--------------------------|
G---------------------------------------11------------------------|
D-----------------------------------------------------------------|
A-----------------------------------------------------------------|
E-----------------------------------------------------------------|

e--------------------7--------------------------------------------|
B---9--------7---------10-9---------------------------------------|
G-----9-7-9----7-6-7--------11-10-8-10-11-------------------------|
D-----------------------------------------------------------------|
A-----------------------------------------------------------------|
E-----------------------------------------------------------------|

e----6-7-9-10------10-9-12-9-----8/9------------------------------|
B------------10-9------------10-----------------------------------|
G-----------------------------------------------------------------|
D-----------------------------------------------------------------|
A-----------------------------------------------------------------|
E-----------------------------------------------------------------|

e------------10-12-9-9/10-10-8------------------------------------|
B-12-10-9---------------------------------------------------------|
G-----------------------------------------------------------------|
D-----------------------------------------------------------------|
A-----------------------------------------------------------------|
E-----------------------------------------------------------------|

e---9------------------9------------------------------------------|
B-7---9-----10-10----7---9-9----10-12-10--------------------------|
G---------------------------------------11------------------------|
D-----------------------------------------------------------------|
A-----------------------------------------------------------------|
E-----------------------------------------------------------------|

e--------------------7--------------------------------------------|
B---9--------7---------10-9---------------------------------------|
G-----9-7-9----7-6-7--------11-10-8-10-11-------------------------|
D-----------------------------------------------------------------|
A-----------------------------------------------------------------|
E-----------------------------------------------------------------|


A pretty simple song. Hope you enjoy it

Suggest correction
What's this?
You can suggest a correction to this tab. Community and Mods will review your correction and vote to approve or reject it.
comments
We did not receive enough feedback on this tab! Please rate:
print report bad tab
1 2 3 4 5
guest
You may want to rate the tab now too:
select rating
Please do not post tabs as comments. Select "correction" instead!