Oops, an error
Loading. Please wait.

This Girl Tab

version 1
version 1

Whole song

Video

  • Youtube video lesson on how to play 'this girl' by kung vs cookin on 3 burners.
8,608 views 210 this week
no commentswrite comment
1 2 3 4 5
x 7
add to favorites
launch autoscroll
font size
0
reset
how to read this tab
guitar tuner
Autoscroll
slow
fast
+/-
esc
set tempo
stop
Help us to improve Ultimate-Guitar.com Take our survey!
×
Standard Tuning

Guitar (Notes in parenthesis are optional)
Note:  There are two endings after the main riff.  Know when to play which one

 [Main Riff]                  [Ending 1]        [Ending 2]
e|----(8)-11-(8)---(6~)---|-----------------|----------------|
B|-----9------9-----8~----|-----------------|----------------|
G|-----8------8-----7~----|-----------------|----------------|
D|---(10)---(10)---(8~)---|--------8-8h10-8-|-------8------8-|
A|-8--(8)----(8)---(6~)---|-8-8h10----------|8-8h10---8h10---|
E|------------------------|-----------------|----------------|

 Trumpet
   [Verses]
e|-----3-----|
B|-4-4---4-6-|
G|-----------|
D|-----------|
A|-----------|
E|-----------|

 [Part 1]                         [Part 2]
e|---------------------3-----|    |----------------------3-------------------------3-----|
B|-6--6-4-6-6-6-4--4-4---4-6-|    |-6-6-6-6-6-6-6-4--4-4---4-6--6--66-6-6-6-4--4-4---4-6-|
G|---------------------------| 2x |------------------------------------------------------|
D|---------------------------|    |------------------------------------------------------|
A|---------------------------|    |------------------------------------------------------|
E|---------------------------|    |------------------------------------------------------|

 (When the Beat Drops)
e|--------------------3---------------------------3-----|
B|-6--6--6-6-6-4--4-4---4-6--6-6-6-6-6-6-6-4--4-4---4-6-|
G|------------------------------------------------------|
D|------------------------------------------------------|
A|------------------------------------------------------|
E|------------------------------------------------------|

e|----6----------------3---------------------------3-----|
B|-6-6-6--6-6-6-4--4-4---4-6--6-6-6-6-6-6-6-4--4-4---4-6-|
G|-------------------------------------------------------|
D|-------------------------------------------------------|
A|-------------------------------------------------------|
E|-------------------------------------------------------|

e|--------------------3---------------------------3-----|
B|-6--66-6-6-6-4--4-4---4-6--6-6-6-6-6-6-6-4--4-4---4-6-|
G|------------------------------------------------------|
D|------------------------------------------------------|
A|------------------------------------------------------|
E|------------------------------------------------------|


************************************

| (n)  Ghost note
| h    Hammer-on
| ~    Vibrato  

************************************
Suggest correction
comments
print report bad tab
guest
You may want to rate the tab now too:
select rating
Wanna post a correction for this tab? Suggest correction