Oops, an error
Loading. Please wait.

Yine Tab

version 1
version 1

Whole song

Interactive

3,024 views 1 this week
no commentswrite comment
1 2 3 4 5
please rate
add to favorites
launch autoscroll
font size
0
reset
how to read this tab
guitar tuner
Autoscroll
slow
fast
+/-
esc
set tempo
stop
Help us to improve Ultimate-Guitar.com Take our survey!
×
Author
Kurban-Yine

 intro(first riff)
 --------------------------------------------------------------------|
 --------------------------------------------------------------------|
 -5-5-3-5--5-5-3-5--5-5-3-5--5-5-3-5--5-5-3-5--5-5-3-5--5-5-3-5------|
 -5-5-3-5--5-5-3-5--5-5-3-5--5-5-3-5--5-5-3-5--5-5-3-5--5-5-3-5------|
 --------------------------------------------------------------------|
 --------------------------------------------------------------------|

 right after the intro
 ---------------------------------------------------------------------|
 ---------------------------------------------------------------------|
 -5--5------------------(-8-)(-7-)(-3-)(-5-)--------------------------|
 -5--5---3--3----6--6---(-8-)(-7-)(-3-)(-5-)--------------------------|
 -3--3---3--3----6--6---(-6-)(-5-)(-1-)(-3-)--------------------------|
 --------1--1----4--4-------------------------------------------------|

 after you play the intro two times
 ---------------------------------------------------------------------|
 ---------------------------------------------------------------------|
 -5-5-5-5-5----------------------------------------8--7--3--5---------|
 -5-5-5-5-5--3-3-3-3-3-3---6-6-6-6-6-6-6-6-6-6-6---8--7--3--5---------|
 -3-3-3-3-3--3-3-3-3-3-3---6-6-6-6-6-6-6-6-6-6-6---6--5--1--3---------|
 ------------1-1-0-1-0-1---4-4-4-5-4-4-4-6-4-4-4----------------------|

 verses      p.m                     p.m
 -------------------------I-------------------------------------------|
 -------------------------I-------------------------------------------|
 -------------------------I-------------------------------------------|
 --5-5---6-5-5-5-5-5--6-5-I-5-5-x-6-5-5-5-5-5---3-5-------------------|
 --5-5---6-5-5-5-5-5--6-5-I-5-5-x-6-5-5-5-5-5---3-5-------------------|
 --3-3-x-4-3-3-3-3-3--4-3-I-3-3-x-4-3-3-3-3-3-4-1-3-------------------|
 ..ne oldu neden saklandýn...........

 chorus
 ---------------------------------------------------------------------|
 ---------------------------------------------------------------------|
 -5-5-5-5-5-------------------------------------------8-7-3-5---------|
 -5-5-5-5-5--3-3-3-3-3-3---6-6-6-6--6-6-6-6--6-6-6-6--8-7-3-5---------|
 -3-3-3-3-3--3-3-3-3-3-3---6-6-6-6--6-6-6-6--6-6-6-6--6-5-1-3---------|
 ------------1-1-1-0-1-0---4-4-5-4--4-4-6-4--4-4-5-4------------------|
  kenimi yormadan.................


 after the chorus
 --------------------------------------------------------------------|
 --------------------------------------------------------------------|
 --------------------------------------------------------------------|
 --5-5-x-6--5-5-5-5-x-6--5-5-x-6--5-5-5-5-x-6-6----------------------|
 --5-5-x-6--5-5-5-5-x-6--5-5-x-6--5-5-5-5-x-6-6----------------------|
 --3-3-x-4--3-3-3-3-x-4--3-3-x-4--3-3-3-3-x-4-4----------------------|

 this part is played with the bass solo (2:33 dk)


 solo(guitar I)
 --3---------1---------4---------3-------1-------4-------------------|
 --4---------1---------4---------4-------1-------4-------------------|
 --5---------2---------5---------5-------2-------5-------------------|
 --5---------3---------6---------5-------3-------6-------------------|
 --3---------3---------6---------3-------3-------6-------------------|
 --0---------1---------4---------0-------1-------4-------------------|
  guitar II solo rythm


 guitar II
 --------------------------------------------------------------------|
 -15--18-17-13-----------------------------18-17-15------------------|
 --------------12-13-15--13-17-15-13-15-13---------------------------|
 --------------------------------------------------------------------|
 --------------------------------------------------------------------|
 --------------------------------------------------------------------|

  solo continues (3:14 dk)
 --------------------------------------------I---15^^-15^^------------|
 -7-7-7-10-8-8-8-10-8-8-8-10-8-8-8-15-14-12--I------------------------|
 -5-5-5--8-6-6-6--8-6-6-6--8-6-6-6-13-12-10--I------------------------|
 --------------------------------------------I------------------------|
 --------------------------------------------I------------------------|
 --------------------------------------------I------------------------|
after this back to the chorus
Suggest correction
What's this?
You can suggest a correction to this tab. Community and Mods will review your correction and vote to approve or reject it.
comments
We did not receive enough feedback on this tab! Please rate:
print report bad tab
1 2 3 4 5
guest
You may want to rate the tab now too:
select rating
Please do not post tabs as comments. Select "correction" instead!