Oops, an error
Loading. Please wait.

Zorba Bass Tab

version 1
version 1

Whole song

Interactive

1,714 views 1 this week
no commentswrite comment
1 2 3 4 5
3 more votes to show rating
add to favorites
launch autoscroll
font size
0
reset
guitar tuner
Autoscroll
slow
fast
+/-
esc
set tempo
stop
Help us to improve Ultimate-Guitar.com Take our survey!
×
Author
Difficulty
intermediate
  Giriş ve Nakarat (0:00 - 0:20)
G|-------------------------------------------------|
D|o------------------------------------------------|
A|o---------------------6---7-7-6-------7-6-9-7----|
E|-4h5-4h5-7-5-7h8-7h8----8-------8-7-5------------|

G|------------------------------------------------||
D|-----------------------------------------------o||
A|---------------------6---7-7-6-----------------o||
E|-4h5-4h5-7-5-7h8-7h8---8-------8-7-5---7x-7x-7--||


 (0:21 - 0:38)
G|----------|
D|----------|
A|----------| 4x
E|--7---5---|

 Nakarat öncesi Distortion kısım (0:39 - 0:56)
G|----------------------------------|
D|o---------------------------------|
A|o-----------------5-5-5-5-5-5-5-5-|
E|-3-3-3-3-3-3-3-3------------------|

G|----------------------------------||
D|---------------------------------o||
A|-3-3-3-3-3-3-3-3-2-2-2-2-2-2-2-2-o||
E|----------------------------------||


 Giriş ve Nakarat(0:59 - 1:19)


 Bu kısım da şu saniyelerde --> (1:120 - 1:40-|
G|-----------------------------------------------------------|
D|o-----------------------------------------------o----------|
A|o-------6------------6--------------------------o----------|
E|-7h8-7----7-5--7h8-7---7-5--5x-5x-5x--5x-5x-5x-------------|


 Slap bas Bölüm (1:45 - 2:03)
G|-------------------------------------------|
D|o-----9-----9---9--------7-----7---7-7/9--o|
A|o-----------------------------------------o|
E|-7-7----7-7---7---7--5-5---5-5---5---------|
   S S  p S S p S p S  S S p S S p S P


Şarkının bassları yukarıdaki gibi.1:40 tan sonra gelen bölümler yukarıdakilerden
farklı değil.


S - Slap
p - Popping
5x, 7x - Basıp susturalacak perde vuruşları
Suggest correction
Give kudos to tab author, rate the tab!
1 2 3 4 5
comments
print report bad tab
guest
You may want to rate the tab now too:
select rating
Wanna post a correction for this tab? Suggest correction