Oops, an error
Loading. Please wait.

And I Love Her tab

version 1
version 1

Whole song

Interactive

Video

24,387 views 318 this week
3 commentsread comments
1 2 3 4 5
x 52
add to favorites
×
Save as Personal and add changes to this tab that will be seen only by you. Learn more ›
×
You can save this tab as Personal to edit and correct it or add notes. All changes will be seen only by you. Learn more »
launch autoscroll
font size
0
reset
how to read this tab
guitar tuner
edit
Autoscroll
slow
fast
+/-
esc
set tempo
stop
-------------------------------------------------------------------------------
                        Kurt Cobain - And I Love Her
-------------------------------------------------------------------------------
Tabbed by: bojenka2
Tuning: half-step down
Note: this is my first tab..

[Intro]  x3 

e|---------------------------------------------------------------|
B|---------------------------------------------------------------|
G|-----------2-2-2-2-2-2-2-2-(2)---------------------------------|
D|-----------2-2-2-2-2-2-2-2-(2)----------------2-2-2-2-2-2-2-2--|
A|----3-2-0--0-0-0-0-0-0-0-0-(0)---------3-2----2-2-2-2-2-2-2-2--|
E|--3----------------------------------3-----0--0-0-0-0-0-0-0-0--|  


[Verse]

e|---------------------------------------------------------------|
B|---------------------------------------------------------------|
G|-----------2-2-2-2-2-2---------------2-2-2-2-2-2---------------|
D|-----------2-2-2-2-2-2--2-2-2-2-2-2--2-2-2-2-2-2--2-2-2-(2)----|
A|----3-2-0--0-0-0-0-0-0--2-2-2-2-2-2--0-0-0-0-0-0--2-2-2-(2)----|
E|--3---------------------0-0-0-0-0-0---------------0-0-0-(0)----|
             She gives me everything   and tenderly

e|---------------------------------------------------------------|
B|---------------------------------------------------------------|
G|-----------2-2-2-2-2-2-----------------------------------------|
D|-----------2-2-2-2-2-2--2-2-2-2-2-2----------------------------|
A|----3-2-0--0-0-0-0-0-0--2-2-2-2-2-2----------------------------|
E|--3---------------------0-0-0-0-0-0----------------------------|
             The kiss my lover brings

[Chorus]

e|---------------------------------------------------------------|
B|---------------------------------------------------------------|
G|-----------5-5-5-5-5-5--7-7-7-7-7-7----------------------------|
D|-----------5-5-5-5-5-5--7-7-7-7-7-7--5-5-5-5-5-5-5-5-5---------|
A|-----------3-3-3-3-3-3--5-5-5-5-5-5--5-5-5-5-5-5-5-5-5---------|
E|-------------------------------------3-3-3-3-3-3-3-3-3---------|
             She brings to me...   and I love her


[Verse]

e|---------------------------------------------------------------|
B|---------------------------------------------------------------|
G|-----------2-2-2-2-2-2---------------2-2-2-2-2-2---------------|
D|-----------2-2-2-2-2-2--2-2-2-2-2-2--2-2-2-2-2-2--2-2-2-(2)----|
A|----3-2-0--0-0-0-0-0-0--2-2-2-2-2-2--0-0-0-0-0-0--2-2-2-(2)----|
E|--3---------------------0-0-0-0-0-0---------------0-0-0-(0)----|
             Bright are the stars that shine, dark is the sky

e|---------------------------------------------------------------|
B|---------------------------------------------------------------|
G|-----------2-2-2-2-2-2-----------------------------------------|
D|-----------2-2-2-2-2-2--2-2-2-2-2-2----------------------------|
A|----3-2-0--0-0-0-0-0-0--2-2-2-2-2-2----------------------------|
E|--3---------------------0-0-0-0-0-0----------------------------|
             I know this love of mine

[Chorus]

e|---------------------------------------------------------------|
B|---------------------------------------------------------------|
G|-----------5-5-5-5-5-5--7-7-7-7-7-7----------------------------|
D|-----------5-5-5-5-5-5--7-7-7-7-7-7--5-5-5-5-5-5-5-5-5---------|
A|-----------3-3-3-3-3-3--5-5-5-5-5-5--5-5-5-5-5-5-5-5-5---------|
E|-------------------------------------3-3-3-3-3-3-3-3-3---------|
             Will never die...    and I love her
            

[Bridge]

e|-----------------------------------------------------------------------------------------------------------|
B|-----------------------------------------------------------------------------------------------------------|
G|-------4-4-4-4-4-4---------------4-4-4-4-4-4---------------4-4-4-4-4-4---------------7-7-7-7-7-7-7-7-7-(7)-|
D|-------4-4-4-4-4-4--5-5-5-5-5-5--4-4-4-4-4-4--5-5-5-5-5-5--4-4-4-4-4-4--5-5-5-5-5-5--7-7-7-7-7-7-7-7-7-(7)-|
A|-------2-2-2-2-2-2--5-5-5-5-5-5--2-2-2-2-2-2--5-5-5-5-5-5--2-2-2-2-2-2--5-5-5-5-5-5--5-5-5-5-5-5-5-5-5-(5)-|
E|--------------------3-3-3-3-3-3---------------3-3-3-3-3-3---------------3-3-3-3-3-3------------------------|
         A love like ours,         will never die              as long  as I hold you near me


[End (Intro)]

e|---------------------------------------------------------------|-----------|
B|---------------------------------------------------------------|-----------|
G|-----------2-2-2-2-2-2-2-2-(2)---------------------------------|-----------|
D|-----------2-2-2-2-2-2-2-2-(2)-------------2-2-2-2-2-2-2-2-(2)-|-----------|
A|----3-2-0--0-0-0-0-0-0-0-0-(0)------3-2----2-2-2-2-2-2-2-2-(2)-|----3-2----|
E|--3-------------------------------3-----0--0-0-0-0-0-0-0-0-(0)-|--3-----0--|

            
            
Suggest correction
Creating personal tab
Creating personal tab
You can edit any tab online and save it as your Personal.

You can edit, replace or remove any tab part or add personal notes – all changes will be seen only by you.

Personal tabs can be accessed anytime from any device, even offline.
Learn more »
comments
print report bad tab
3 comments total.
+1 reply
greenemace 10 Feb 24, 2016 08:19 AM

This is great! Thanks!

+1 reply
The_Fez01 10 Sep 11, 2016 08:37 PM

Great tab m8!

+1 reply
cartledgenathan 10 Apr 12, 2017 04:39 AM

Love this song so much

guest
You may want to rate the tab now too:
select rating
Wanna post a correction for this tab? Suggest correction