Oops, an error
Loading. Please wait.

Letters To Frances tab

version 2
version 2

Whole song

  • There were missing parts that needed to be added, ... Show more

Interactive

1,342 views 15 this week
2 commentsread comments
1 2 3 4 5
x 7
add to favorites
×
Save as Personal and add changes to this tab that will be seen only by you. Learn more ›
×
You can save this tab as Personal to edit and correct it or add notes. All changes will be seen only by you. Learn more »
launch autoscroll
font size
0
reset
how to read this tab
guitar tuner
edit
Autoscroll
slow
fast
+/-
esc
set tempo
stop
About this tab version
There were missing parts that needed to be added, it was transcribed differently and It was in the wrong tunings. Was this info helpful? Yes No
Transcribed by Music One
Kurt Cobain
Letters to Frances
Tuning E flat - Drop C#
C#-G#-C#-F#-A#-D# 

Main Section. This piece is played on an acoustic guitar. The arrangements of this piece
is played in these notes. Kurt plays it a little sloppily but anyways you should be fine 
mixing it up.

[Main Section]
D# |--------------------------|----------------------------|
A# |--------------------------|----------------------------|
F# |--------------------------|----------------------------|
C# |--------4-----5--4--2--0--|---4-----4-----5--4--2--0---|
G# |---5-------5--------------|------5-----5---------------|
C# |--------------------------|----------------------------|

D# |--------------------------|----------------------------|
A# |--------------------------|----------------------------|
F# |--------------------------|----------------------------|
C# |---4----4-----5--4--2--0--|---4-----4-----5--4--2--0---|
G# |-----------5--------------|------5-----5---------------|
C# |--------------------------|----------------------------|

D# |-------------------------|-------------------------|
A# |-------------------------|-------------------------|
F# |-------------------------|-------------------------|
C# |--4----4-----5--4--2--0--|--------4---5--4--2------|
G# |----------5--------------|---3-----------------3---|
C# |-------------------------|-------------------------|

D# |------------------------|---------------------------|
A# |------------------------|---------------------------|
F# |------------------------|---------------------------|
C# |--------4---5--4--2--0--|--------4-----5--4--2------|
G# |---5--------------------|---3-------3-----------3---|
C# |------------------------|---------------------------|

D# |----------------------------|----------------------------------|
A# |----------------------------|----------------------------------|
F# |----------------------------|----------------------------------|
C# |--------4-----5--7---5---4--|------------4-----5---7---5---4---|
G# |---5-------5----------------|---3----3------3------------------|
C# |----------------------------|----------------------------------|

D# |-------------------------------|--------------------------------|
A# |-------------------------------|--------------------------------|
F# |-------------------------------|--------------------------------|
C# |----------4-----5--7----5---4--|----------4-----5---7---5---4---|
G# |---5---5-----5-----------------|---3---3-----3------------------|
C# |-------------------------------|--------------------------------|

 Chords: Strum all chords with a down stroke while plucking the chords.

[Chords]
D# |--------------------------------|---------------------------|
A# |--------------------------------|---------------------------|
F# |--------------------------------|---------------------------|
C# |---4----4---2--2--2--2--2---4---|---4---2--2--2--2--2---4---|
G# |---0----0---0--0--0--0--0---0---|---0---0--0--0--0--0---0---|
C# |---0----0---0--0--0--0--0---0~--|---0---0--0--0--0--0---0---|

D# |---------------------------|---------------------------|
A# |---------------------------|---------------------------|
F# |---------------------------|---------------------------|
C# |---4---2--2--2--2--2---4---|---4---2--2--2--2--2-------|
G# |---0---0--0--0--0--0---0---|---0---0--0--0--0--0-------|
C# |---0---0--0--0--0--0---0~--|---0---0--0--0--0--0---5---|

[Main Section]
D# |-------------------------|----------------------------|
A# |-------------------------|----------------------------|
F# |-------------------------|----------------------------|
C# |-----4-----5--4--2--0----|---4-----4-----5--4--2--0---|
G# |--------5----------------|------5-----5---------------|
C# |-------------------------|----------------------------|

D# |-----------------------------|----------------------------|
A# |-----------------------------|----------------------------|
F# |-----------------------------|----------------------------|
C# |----4----4-----5--4--2--0----|---4-----4-----5--4--2--0---|
G# |------------5----------------|------5-----5---------------|
C# |-----------------------------|----------------------------|

[Chords]
D# |--------------------------------|---------------------------|
A# |--------------------------------|---------------------------|
F# |--------------------------------|---------------------------|
C# |---4----4---2--2--2--2--2---4---|---4---2--2--2--2--2---4---|
G# |---0----0---0--0--0--0--0---0---|---0---0--0--0--0--0---0---|
C# |---0----0---0--0--0--0--0---0~--|---0---0--0--0--0--0---0---|

D# |---------------------------|---------------------------|
A# |---------------------------|---------------------------|
F# |---------------------------|-----------------------2---|
C# |---4---2--2--2--2--2---4---|---4---2--2--2--2--2---0---|
G# |---0---0--0--0--0--0---0---|---0---0--0--0--0--0---0---|
C# |---0---0--0--0--0--0---0~--|---0---0--0--0--0--0---0---|

            
            
Suggest correction
Creating personal tab
Creating personal tab
You can edit any tab online and save it as your Personal.

You can edit, replace or remove any tab part or add personal notes – all changes will be seen only by you.

Personal tabs can be accessed anytime from any device, even offline.
Learn more »
comments
print report bad tab
2 comments total.
+3 reply
perrycant 41 Dec 09, 2016 03:56 PM

Spot on for most if not all of it, you did the hard work so we don't have to. Thankyou

+1 reply
GrungeBloke 32 May 07, 2017 11:39 AM

Very nice.

guest
You may want to rate the tab now too:
select rating
Wanna post a correction for this tab? Suggest correction