Oops, an error
Loading. Please wait.

Hahahahasula tab

version 1
version 1

Whole song

  • Video playback available here: https://youtu.be/EPua4nG2_HQ.

Interactive

15,562 views 165 this week
7 commentsread comments
1 2 3 4 5
x 4
add to favorites
×
Save as Personal and add changes to this tab that will be seen only by you. Learn more ›
×
You can save this tab as Personal to edit and correct it or add notes. All changes will be seen only by you. Learn more »
launch autoscroll
font size
0
reset
how to read this tab
guitar tuner
edit
Autoscroll
slow
fast
+/-
esc
set tempo
stop
Author
[Intro]

    D                               A                           Bm         F#m G
E|-----------5--0-------0---------|--------------------------|-----------------2------|
B|--------3-----------3---2----2--|----------2--2----2-------|--2h3--3--3--3----------|
G|-----2-------------2------------|-------4-----------4----4-|------------------------|
D|--0-----------0---0-------0-----|----2------------2--------|------------------------|
A|--------------------------------|-0-----------0--0----0----|--2-------2-------------|
E|--------------------------------|--------------------------|-------------2---3------|

  
[Verse 1]

    D                         A                   Bm                     G
E|-------------------------------------------|-------------------0--2-------------0------|
B|--3----------------0--3--2-----------------|----3--3--3-----3--------0----0--0------3--|
G|--0h2--2--2--0--2--------------2--2------2-|-2-----------2-----------------------------|
D|--0-------------0---------------------------|------------------------------------------|
A|----------------------------0-----0--0-----|----2-----------2--------------------------|
E|-------------------------------------------|---------------------------3-----3---------|


    D                         A                        Bm                       G
E|------------------------------------------------|----2--2--2-----2h3--2--0--0---------|
B|-----2--3--2--3--------0h2-----3--3--2--3-------|-3-----------3-----------------3--3--|
G|-----------------2--2----------------------2----|-------------------------------------|
D|--0-----------0---------------------------------|-------------------------------------|
A|----------------------------0-----------0----0--|----2-----------2--------------------|
E|------------------------------------------------|-----------------------------3----3--|


[Refrain]

             Em                  A                        G                  C
E|--------0--0h2--0--0--------0--0h2--0--0--|-5--3--2--0--0--------|--------------------------|
B|-----3-------------------3----------------|----------------3--3--|-0--3-3h5---5---5--3--5---|
G|--0-------------------0-------------------|----------------------|--------------------------|
D|------------------------------------------|-------0--------------|--------------------------|
A|-------------------------------0-------0--|----------------------|---------3------------3---|
E|-----------0-------0----------------------|-------------3-----3--|--------------------------|


            A                           A(strum once)
E|-------3-----3--2--------0--------|------------------------------|
B|-0--3--------------3--3--------3--|---2--------------------------|
G|----------------------------------|---2--------------------------|
D|----------------------------------|---2--------------------------|
A|----------0-----------------0-----|---0--------------------------|
E|----------------------------------|------------------------------|


[Chorus]

              D                        A                        Bm                      
E|-----0-----5---------------0-----5-|----------------0-----5--|-----------2-2h3--2--0-|
B|--3-----3------3--3-----3-----3----|----3--3-----3-----3-----|---3-3--3--------------|
G|-----------------------------------|-------------------------|-----------------------|
D|------------0--------0-------------|-------------------------|-----------------------|
A|-----------------------------------|-0--------0--------------|-2------2--------------|
E|-----------------------------------|-------------------------|-----------------------|


   G                                                                    
E|---------0-----0-----0--|
B|---3--3-----3-----3-----|
G|------------------------|
D|------------------------|
A|------------------------|
E|-3-------3-----3-----3--|


    D               A                      Bm                   G
E|--5--3---2-------0---0h2--2-----------|--5--3-----2--------0-------|-----0--0h2--0--------|
B|--------------3-----------------3-----|-----------------3--------3-|--3-------------3-----|
G|--------------------------------------|----------------------------|----------------------|
D|--0----0----0-------------------------|----------------------------|----------------------|
A|------------------0-------0--0-----0--|--2-----2-----2-------------|----------------------|
E|--------------------------------------|-----------------------3----|----------------------|



[Instrumental] 


    D                               A                           Bm      F#m  G
E|-----------5--0-------0---------|--------------------------|---------------2------|
B|--------3-----------3---2----2--|----------2--2----2-------|--2h3--3--3-----------|
G|-----2-------------2------------|-------4-----------4----4-|----------------------|
D|--0-----------0---0-------0-----|----2------------2--------|----------------------|
A|--------------------------------|-0-----------0--0----0----|--2-------------------|
E|--------------------------------|--------------------------|----------2----3------|


[Verse 2]

    D                         A                  Bm                     G
E|------------------------------------------|-------------------0--2-------------------|
B|--3----------------0--3--2----------------|----3--3--3-----3--------3---0--0--3--2---|
G|--0h2--2--2---0-2--------------2--2-----2-|-2-----------2----------------------------|
D|--0---------------------------------------|------------------------------------------|
A|----------------0-----------0-----0--0----|----2-----------2-------------------------|
E|------------------------------------------|---------------------------3----3---------|


    D                A                    Bm                        G
E|-----5--2--5----------5--2--5--------|--2--2--2-----2h3--2--0--0------------|
B|----------------3-----------------3--|-----------3-------------------3--3---|
G|-------------------------------------|--------------------------------------|
D|--0----------0-----------------------|--------------------------------------|
A|-------------------0-----------0-----|--2-----------2-----------------------|
E|-------------------------------------|----------------------------3-----3---|


[Refrain]

             Em                  A                        G                  C
E|--------0--0h2--0--0--------0--0h2--0--0--|-5--3--2--0--0--------|--------------------------|
B|-----3-------------------3----------------|----------------3--3--|-0--3-3h5---5---5--3--5---|
G|--0-------------------0-------------------|----------------------|--------------------------|
D|------------------------------------------|-------0--------------|--------------------------|
A|-------------------------------0-------0--|----------------------|---------3------------3---|
E|-----------0-------0----------------------|-------------3-----3--|--------------------------|


            A                           A(strum once)
E|-------3-----3--2--------0--------|------------------------------|
B|-0--3--------------3--3--------3--|---2--------------------------|
G|----------------------------------|---2--------------------------|
D|----------------------------------|---2--------------------------|
A|----------0-----------------0-----|---0--------------------------|
E|----------------------------------|------------------------------|

[Chorus]

                D                        A                         Bm                       
E|-------0-----5---------------0-----5-|----------------0-----5--|------------2-2h3--2--0-|
B|-2h3-3----3------3--3-----3-----3----|----3--3-----3-----3-----|---3-3--3---------------|
G|-------------------------------------|-------------------------|------------------------|
D|--------------0--------0-------------|-------------------------|------------------------|
A|-------------------------------------|-0--------0--------------|-2------2---------------|
E|-------------------------------------|-------------------------|------------------------|


   G          
E|---------0-----0-----0--|
B|---3--3-----3-----3-----|
G|------------------------|
D|------------------------|
A|------------------------|
E|-3-------3-----3-----3--|



    D               A                      Bm                   G
E|--5--3---2-------0---0h2--2-----------|--5--3-----2--------0-------|
B|--------------3-----------------3-----|-----------------3--------3-|
G|--------------------------------------|----------------------------|
D|--0----0----0-------------------------|----------------------------|
A|------------------0-------0--0-----0--|--2-----2-----2-------------|
E|--------------------------------------|-----------------------3----|

                D                        A                       Bm                 G
E|-------0-----5--------------0-----5--|---------------0-----5-|---2-----2h3--2--0-----|------0---0---0-----|
B|--3-3-----3------3-3-----3-----3-----|----3-3-----3-----3----|------3----------------|--3-3---3---3-------|
G|-------------------------------------|-----------------------|-----------------------|--------------------|
D|--------------0-------0--------------|-----------------------|-----------------------|--------------------|
A|-------------------------------------|-0-------0-------------|-2----2----------------|--------------------|
E|-------------------------------------|-----------------------|--------------------3--|------3---3---3-----|


    D               A                      Bm                   G
E|--5--3---2-------0---0h2--2-----------|--5--3-----2--------0-----------|
B|--------------3-----------------3-----|-----------------3--------3--3--|
G|--------------------------------------|--------------------------------|
D|--0----0----0-------------------------|--------------------------------|
A|------------------0-------0--0-----0--|--2-----2-----2-----------------|
E|--------------------------------------|-----------------------3-----3--|


Bridge
            Em               D                 G  
E|-----2-2-----2--2-|------3----2--0--------0-----0h2-----|---------------------0h2--0------|
B|--3---------------|-3-3----------------3-------------3--|----3----3-----3-------------3-3-|
G|------------------|-------------------------------------|------------0-----0--------------|
D|------------------|--------0--------0-------------------|---------------------------------|
A|------------------|-------------------------------------|---------------------------------|
E|----------0-----0-|--------------------------3----------|--3---3--3-----------3-----------|


    Em                D                      G        Asus     A
E|-----------|--7--5-----2-2--0--2-----|--------------5---|----2h3-2--0-0------------|
B|-----3--3--|----------------------3--|--0--0--3---------|----------------3-3--3h5--|
G|-----------|-------------------------|------------------|--------------------------|
D|-----------|--------0----------------|------------------|--------------------------|
A|-----------|-------------------------|-----------2--0---|----0---------------------|
E|--0-----0--|-------------------------|-----3--3---------|--------------------------|


    D               A           Bm              G
E|--5--3---2-----0-----0h2---|--5--3---2-----0----------|
B|------------3--------------|------------3--------3----|
G|---------------------------|--------------------------|
D|--0----0-------------------|--------------------------|
A|------------------0--------|--2----2------------------|
E|---------------------------|------------------3-------|


Chorus (Change key)

                    E                         B                        C#m                       A
E|----------------7-----------------------7-|----------------------7-|------------4-4h5--4----------|
B|--3h5-5-5h7--5--------5-5-----5-5h7--5----|----5-5-----5-5h7--5----|----5-5---------------5h7-----|
G|------------------------------------------|------------------------|------------------------------|
D|------------------------------------------|------------------------|------------------------------|
A|------------------------------------------|------------------------|-4-------4-----------------0--|
E|------------------0--------0--------------|-7-------7--------------|------------------------------|



E|--------------------------|
B|--5-5--7--5--7--5--7------|
G|--------------------------|
D|--------------------------|
A|-------0-----0-----0------|
E|--------------------------|



   E                  B                     C#m                  A
E|-7--5---4--------------------|---------|--7--5-----4------------------|
B|-------------5-5h7-----9--9--|----9----|-----------------5-5h7----5---|
G|-----------------------------|---------|------------------------------|
D|-----------------------------|---------|------------------------------|
A|-----------------------------|---------|--4-----4-----4--------0------|
E|-0----0---0---------7-----7--|-7-----7-|------------------------------|


 
                   E                          B                         C#m                   A
E|----7h9--7--5--7------------|-7h9--7--5--7-------------|------------7---4-----4-4h5--4--------|
B|-5------------------5-5-----|------------------5-5-----|--5-5h7--5---------5------------5h7---|
G|----------------------------|--------------------------|--------------------------------------|
D|----------------------------|--------------------------|--------------------------------------|
A|----------------------------|--------------------------|--------------4----4----------------0-|
E|-----------------0-------0--|---------------7-------7--|--------------------------------------|


E|---------------------|
B|-5-5--7--5--7--5--7--|
G|---------------------|
D|---------------------|
A|------0--------------|
E|---------------------|

   E                  B                     C#m                  A
E|-7--5---4--------------------|---------|--7--5-----4------------------|------------------|
B|-------------5-5h7-----9--9--|----9----|-----------------5-5h7----5---|--5--7-7h9--7--5--|
G|-----------------------------|---------|------------------------------|------------------|
D|-----------------------------|---------|------------------------------|------------------|
A|-----------------------------|---------|--4-----4-----4--------0------|--0---------------|
E|-0----0---0---------7-----7--|-7----7--|------------------------------|------------------|






************************************

| h  Hammer-on

************************************

            
            
Suggest correction
Creating personal tab
Creating personal tab
You can edit any tab online and save it as your Personal.

You can edit, replace or remove any tab part or add personal notes – all changes will be seen only by you.

Personal tabs can be accessed anytime from any device, even offline.
Learn more »
comments
print report bad tab
7 comments total. Showing first comments.
0 reply
kaishiroe 10 Nov 04, 2015 02:01 AM

good job for tabbing this one

0 reply
bongski911 53 Nov 05, 2015 12:44 AM

https://www.youtube.com/watch?v=ocmxOdxt0dQ

0 reply
rodeoglen990 10 Jan 25, 2017 05:10 AM

Can you create a Bridge to this song and a final chorus

guest
You may want to rate the tab now too:
select rating
Wanna post a correction for this tab? Suggest correction