Oops, an error
Loading. Please wait.

Hallelujah Chords

version 1
version 1

Whole song

Interactive

21,307 views 12 this week
no commentswrite comment
1 2 3 4 5
accurate
x 5
add to favorites
launch autoscroll
font size
0
reset
transpose
0
reset
display chords
guitar tuner
Autoscroll
slow
fast
+/-
esc
set tempo
stop
Help us to improve Ultimate-Guitar.com Take our survey!
×
Author
                       
----------------------------------------------------------------------------
                             Hallelujah - Kurt Nilsen
----------------------------------------------------------------------------

Tabbed by: Everton

Enjoy


      


Intro:

e|---------3-----------3-------------3-----------3-----|
B|---------3-----------3-------------3-----------3-----|
G|-------0---0-------0---0---------0---0-------0---0---|
D|-----0-------0---2-------2-----0-------0---2-------2-|
A|-----------------------------2-----------------------|
E|---3----------0------------3-------------0-----------|


      [C]                Am]
I've heard there was a secret chord
      [C]                   [Am]
That David played, and it pleased the Lord
     [F]              [G]            [C]          [G]
But you don't really care for music, do you?     
    [C]     
It goes like this
      [F]           [G] 
The fourth, the fifth
     [Am]            [F]
The minor fall, the major lift
      [G]            [E]         [Am]
The baffled king composing Hallelujah

    F            Am
Hallelujah, Hallelujah
    F          C     G    C
Hallelujah, Hallelu-uuu-ujah     

(Chords are the same for each of the verses)
Suggest correction
comments
print report bad tab
guest
You may want to rate the tab now too:
select rating
Please do not post tabs as comments. Select "correction" instead!