Oops, an error
Loading. Please wait.

Hallelujah Tab

version 2
version 2

Whole song

Interactive

4,009 views 3 this week
no commentswrite comment
1 2 3 4 5
2 more votes to show rating
add to favorites
launch autoscroll
font size
0
reset
how to read this tab
guitar tuner
Autoscroll
slow
fast
+/-
esc
set tempo
stop
Help us to improve Ultimate-Guitar.com Take our survey!
×
Author
Difficulty
Tuning
intermediate
D# G# C# F# A# D#
There are a lot of people who sing this song, so i just used a really good artist Kurt 
this is actually a mixture of my verion of the song and his.
Sorry if you don't like it this is my first tab. Any mean comments will be unnecessary. 
is how i performed it at a school event. Video of me playing it below =)   (Please do 
take credit for my work if you want to put this on another site)

http://www.youtube.com/watch?v=CFpKMRY3yA0

h-hammer on
p- pull off

Vocal note for "HEARD" is on the 3rd fret of B string (while tuned down a half 
doesn't apply if you want to use a capo! Capo on 5th Fret is usually the original way to play it. 
HEARD (vocal note) would be on 2nd fret of B string. This way just best suits my voice!)

INTRO:
e |----3--------3-----------3---------3---|
B |----3--------3-----------3---------3---|
G |---0-0------0-0---------0-0-------0-0--|
D |--0--------0-----------0---------0-----|
A |--------------------0h2----------------|
E |-3------2-0------2-3---------2-0-------|

VERSE 1:
e |--------3---------3-----------3---------3---|
B |--------3---------3-----------3---------3---|
G |-------0-0-------0-0---------0-0-------0----|
D |------0---------0-----------0---------0-----|
A |---0h2-------------------0h2----------------|
E |2-3---------2-0-------2-3---------2-0-------|
   I Heard....          That David.....

e |----3----2-----3p2----3----3---3p2--3|
B |----1----3-----3------3----3---3----3|
G |---0-0----2-------2----0----0-----2--|
D |--2---2----0-------0----0----0-----0-|
A |-3-----------------------------------|
E |-------------------------------------|
But You.....Care..music...do ya?

e |-----3---3-------3-----2-------3--3----3--3--|
B |-----3---3-------1-----3-------3--3----1--1--|
G |------0---0-------0-----2-------0--0----0--0-|
D |-------0---0-------2-----0-------2--2----2--2|
A |---------------------------------------------|
E |---------------------------------------------|
Well It goes like..fourth..fifth..Minor....Major

e |-2--2---------2--------2--0--0--0|  Let last note ring until you sing
B |-3--3---------4--------4--0--0--0|  the "LU" in the chorus' first
G |--2--2---------4--------4--0--0--|  HALLELUJAH immediately play the
D |---0--0---------4--------4--2--2-|  chorus. My video will demenstrate.
A |---------------------------------|
E |---------------------------------|
The Baffled king composing Hallelujah

CHORUS:
e |------3-----3------3---3------------3-------3-------3------3----|
B |------1-----1------3---3p2----------1-----1-1-------3------3p2--|
G |-----0-0---0-0----0-0-----2--------0-0---0---0-----0-0----3---3-|
D |----2---2-2---2--2---2-----0------2---2-2-----2---0---0--0-----0|
A |---3-----3------0----------------3-----3----------------0-------|
E |-------------------------------------------------3--------------|
 HalleLUJAH     Hallelujah     HalleLUJAH      Hallelujah
DON'T LET LAST NOTE RING: GO STRAIGHT INTO INTRO OF VERSE 2

INTRO OF VERSE 2:
e |----3--------3-----------3---------3---|
B |----3--------3-----------3---------3---|
G |---0-0------0-0---------0-0-------0-0--|
D |--0--------0-----------0---------0-----|
A |--------------------0h2----------------|
E |-3------2-0------2-3---------2-0-------|

VERSE 2:
e |--------3---------3-----------3---------3---|
B |--------3---------3-----------3---------3---|
G |-------0-0-------0-0---------0-0-------0----|
D |------0---------0-----------0---------0-----|
A |---0h2-------------------0h2----------------|
E |2-3---------2-0-------2-3---------2-0-------|
   Your Faith....          You saw her.....

e |----3----2-----3p2----3----3---3p2--3|
B |----1----3-----3------3----3---3----3|
G |---0-0----2-------2----0----0-----2--|
D |--2---2----0-------0----0----0-----0-|
A |-3-----------------------------------|
E |-------------------------------------|
 Her Beauty...           Overthrew ya...
e |-----3---3-------3-----2-------3--3--------3--3--|
B |-----3---3-------1-----3-------3--3--------1--1--|
G |------0---0-------0-----2-------0--0--------0--0-|
D |-------0---0-------2-----0-------2--2--------2--2|
A |-------------------------------------------------|
E |-------------------------------------------------|
She tied you....    Kitchen...    She broke..  she cut...

e |-2--2---------2--------2--0--0--0|  Let last note ring until you sing
B |-3--3---------4--------4--0--0--0|  the "LU" in the chorus' first
G |--2--2---------4--------4--0--0--|  HALLELUJAH immediately play the
D |---0--0---------4--------4--2--2-|  chorus. My video will demenstrate.
A |---------------------------------|
E |---------------------------------|
And from your lips she drew the Hallelujah

CHORUS:
e |------3-----3------3---3------------3-------3-------3------3----|
B |------1-----1------3---3p2----------1-----1-1-------3------3p2--|
G |-----0-0---0-0----0-0-----2--------0-0---0---0-----0-0----3---3-|
D |----2---2-2---2--2---2-----0------2---2-2-----2---0---0--0-----0|
A |---3-----3------0----------------3-----3----------------0-------|
E |-------------------------------------------------3--------------|
 HalleLUJAH     Hallelujah     HalleLUJAH      Hallelujah
DON'T LET LAST NOTE RING: GO STRAIGHT INTO INTRO OF VERSE 3

INTRO OF VERSE 3:
e |----3--------3-----------3---------3---|
B |----3--------3-----------3---------3---|
G |---0-0------0-0---------0-0-------0-0--|
D |--0--------0-----------0---------0-----|
A |--------------------0h2----------------|
E |-3------2-0------2-3---------2-0-------|

VERSE 3:
e |--------3---------3-----------3---------3---|
B |--------3---------3-----------3---------3---|
G |-------0-0-------0-0---------0-0-------0----|
D |------0---------0-----------0---------0-----|
A |---0h2-------------------0h2----------------|
E |2-3---------2-0-------2-3---------2-0-------|
 Well Maybe....          But all.....

e |----3----2-----3p2----3----3---3p2--3|
B |----1----3-----3------3----3---3----3|
G |---0-0----2-------2----0----0-----2--|
D |--2---2----0-------0----0----0-----0-|
A |-3-----------------------------------|
E |-------------------------------------|
Was how to...           Who outdrew ya...
e |-----3---3-------3-----2-------3--3--------3--3--|
B |-----3---3-------1-----3-------3--3--------1--1--|
G |------0---0-------0-----2-------0--0--------0--0-|
D |-------0---0-------2-----0-------2--2--------2--2|
A |-------------------------------------------------|
E |-------------------------------------------------|
Its not a cry....    hear at...   Its not..  Whos seen...
e |-2--2---------2--------2--0--0--0|  Let last note ring until you sing
B |-3--3---------4--------4--0--0--0|  the "LU" in the chorus' first
G |--2--2---------4--------4--0--0--|  HALLELUJAH immediately play the
D |---0--0---------4--------4--2--2-|  chorus. My video will demenstrate.
A |---------------------------------|
E |---------------------------------|
Its a cold and its a broken Hallelujah

CHORUS:
e |------3-----3------3---3------------3-------3-------3------3----|
B |------1-----1------3---3p2----------1-----1-1-------3------3p2--|
G |-----0-0---0-0----0-0-----2--------0-0---0---0-----0-0----3---3-|
D |----2---2-2---2--2---2-----0------2---2-2-----2---0---0--0-----0|
A |---3-----3------0----------------3-----3----------------0-------|
E |-------------------------------------------------3--------------|
 HalleLUJAH     Hallelujah     HalleLUJAH      Hallelujah

INTRO OF LAST CHORUS:
e |----3--------3-----------3---------3---|
B |----3--------3-----------3---------3---|
G |---0-0------0-0---------0-0-------0-0--|
D |--0--------0-----------0---------0-----|
A |--------------------0h2----------------|
E |-3------2-0------2-3---------2-0-------|


CHORUS:
e |------3-----3------3---3------------3-------3-------3------3----|
B |------1-----1------3---3p2----------1-----1-1-------3------3p2--|
G |-----0-0---0-0----0-0-----2--------0-0---0---0-----0-0----3---3-|
D |----2---2-2---2--2---2-----0------2---2-2-----2---0---0--0-----0|
A |---3-----3------0----------------3-----3----------------0-------|
E |-------------------------------------------------3--------------|
 HalleLUJAH     Hallelujah     HalleLUJAH      Hallelujah


OUTRO:
e |----3--------3-----------3---------3----------------------3-----|
B |----3--------3-----------3---------3-------------------3--------|
G |---0-0------0-0---------0-0-------0-0---------------0-------0---|
D |--0--------0-----------0---------0---------------0----------0---|
A |--------------------0h2---------------------0h2-------------2---|
E |-3------2-0------2-3---------2-0-------2--3-----------------3---|

Let last note ring! And your finished! These are the 3 verses i used, im sure you can 
out other verses if you want to use those as well! Have fun! =) God Bless You!
Suggest correction
Give kudos to tab author, rate the tab!
1 2 3 4 5
comments
print report bad tab
guest
You may want to rate the tab now too:
select rating
Wanna post a correction for this tab? Suggest correction