Oops, an error
Loading. Please wait.

Rise To The Occasion Tab

13,696 views 3 this week
no commentswrite comment
1 2 3 4 5
2 more votes to show rating
add to favorites
launch autoscroll
font size
0
reset
how to read this tab
guitar tuner
Autoscroll
slow
fast
+/-
esc
set tempo
stop
Help us to improve Ultimate-Guitar.com Take our survey!
×
Author
Difficulty
Capo
intermediate
2nd fret
---------------------------------------------------------------------------------------------------
                                 Rise To The Occasion - Kurt Nilsen
---------------------------------------------------------------------------------------------------
Tabbed by: puzzling 

Tuning: Standard EADGBe, capo 2nd fret.

Even though Kurt Nilsen plays leftie with a normal (right-hand) guitar,
I tabbed this song the standard way. Hope you enjoy!




Intro

   E   E   E   Q    E  Q    Q     E   Q    E  Q    E   E   E   Q    E  Q    Q    E  E  Q    E  E   
e|-------------0----------|-----------0----------|-------------0----------|---------0----------0--|
B|---------0--------0-----|-------0--------0-----|---------0--------0-----|------0----------0-----|
G|-1h--2---------------2--|-4-----------------4--|-4h--6---------------6--|-6----------4----------|
D|------------------------|----------------------|------------------------|-----------------------|
A|------------------------|----------------------|------------------------|-----------------------|
E|-2----------------------|-4--------------------|-5----------------------|-5----------5----------|


   E   E   E   Q    E  Q    Q     E   Q    E  Q    E   E   E   Q    E  Q    W                 
e|-------------0----------|-----------0----------|-------------0----------|-----------------------|
B|---------0--------0-----|-------0--------0-----|---------0--------0-----|-----------------------|
G|-1h--2---------------2--|-4-----------------4--|-4h--6---------------6--|-2---------------------|
D|------------------------|----------------------|------------------------|-----------------------|
A|------------------------|----------------------|------------------------|-----------------------|
E|-2----------------------|-4--------------------|-5----------------------|-2---------------------|




Verse

   E   E   E   Q    E  Q    Q     E   Q    E  Q    E   E   E   Q    E  Q    Q    E  E  Q    E  E   
e|-------------0----------|-----------0----------|-------------0----------|---------0----------0--|
B|---------0--------0-----|-------0--------0-----|---------0--------0-----|------0----------0-----|
G|-1h--2---------------2--|-4-----------------4--|-4h--6---------------6--|-6----------4----------|
D|------------------------|----------------------|------------------------|-----------------------|
A|------------------------|----------------------|------------------------|-----------------------|
E|-2----------------------|-4--------------------|-5----------------------|-5----------5----------|


   E   E   E   Q    E  Q    Q     E   Q    E  Q    E   E   E   Q    E  Q    Q    E  Q    E  Q     
e|-------------0----------|-----------0----------|-------------0----------|---------0-------------|
B|---------0--------0-----|-------0--------0-----|---------0--------0-----|------0-------0--------|
G|-1h--2---------------2--|-4-----------------4--|-4h--6---------------6--|-6---------------6-----|
D|------------------------|----------------------|------------------------|-----------------------|
A|------------------------|----------------------|------------------------|-----------------------|
E|-2----------------------|-4--------------------|-5----------------------|-5---------------------|


   E   E   E   Q    E  Q    Q     E   Q    E  Q    E   E   E   Q    E  Q    Q    E  E  Q    E  E   
e|-------------0----------|-----------0----------|-------------0----------|---------0----------0--|
B|---------0--------0-----|-------0--------0-----|---------0--------0-----|------0----------0-----|
G|-1h--2---------------2--|-4-----------------4--|-4h--6---------------6--|-6----------4----------|
D|------------------------|----------------------|------------------------|-----------------------|
A|------------------------|----------------------|------------------------|-----------------------|
E|-2----------------------|-4--------------------|-5----------------------|-5----------5----------|


   E   E   E   Q    E  Q    Q     E   Q    E  Q    E   E   E   Q    E  Q    W                 
e|-------------0----------|-----------0----------|-------------0----------|-----------------------|
B|---------0--------0-----|-------0--------0-----|---------0--------0-----|-----------------------|
G|-1h--2---------------2--|-2-----------------2--|-1h--2---------------2--|-1---------------------|
D|------------------------|----------------------|------------------------|-----------------------|
A|------------------------|----------------------|------------------------|-----------------------|
E|-2----------------------|-2--------------------|-2----------------------|-2---------------------|




Chorus (chords relative to capo) - Strum as needed

    (A)                    (E)                    (Dadd9/F#)               (Dadd9/F#)            2x
e||--0--------------------|-0--------------------|-0----------------------|-0--------------------||
B||--2--------------------|-0--------------------|-3----------------------|-3--------------------||
G||*-2--------------------|-1--------------------|-2----------------------|-2-------------------*||
D||*-2--------------------|-2--------------------|-0----------------------|-0-------------------*||
A||--0--------------------|-2--------------------|-x----------------------|-x--------------------||
E||--x--------------------|-0--------------------|-2----------------------|-2--------------------||




Mini-Bridge (equal to the 2nd line of the verse)

   E   E   E   Q    E  Q    Q     E   Q    E  Q    E   E   E   Q    E  Q    Q    E  Q    E  Q     
e|-------------0----------|-----------0----------|-------------0----------|---------0-------------|
B|---------0--------0-----|-------0--------0-----|---------0--------0-----|------0-------0--------|
G|-1h--2---------------2--|-4-----------------4--|-4h--6---------------6--|-6---------------6-----|
D|------------------------|----------------------|------------------------|-----------------------|
A|------------------------|----------------------|------------------------|-----------------------|
E|-2----------------------|-4--------------------|-5----------------------|-5---------------------|




Bridge

     Q     E   Q    E  Q    Q    E  Q    E  Q     Q     E   Q    E  Q    E   E   E   Q    E  Q   4x
e||------------0----------|---------0-----------|-----------0----------|-------------0-----------||
B||--------0--------0-----|------0-------0------|-------0--------0-----|---------0--------0------||
G||*-4-----------------4--|-6---------------6---|-2-----------------2--|-1h--2---------------2--*||
D||*----------------------|---------------------|----------------------|------------------------*||
A||-----------------------|---------------------|----------------------|-------------------------||
E||--4--------------------|-5-------------------|-2--------------------|-2-----------------------||




Outro

   E   E   E   Q    E  Q    Q     E   Q    E  Q    E   E   E   Q    E  Q    Q    E  E  Q    E  E   
e|-------------0----------|-----------0----------|-------------0----------|---------0----------0--|
B|---------0--------0-----|-------0--------0-----|---------0--------0-----|------0----------0-----|
G|-1h--2---------------2--|-4-----------------4--|-4h--6---------------6--|-6----------4----------|
D|------------------------|----------------------|------------------------|-----------------------|
A|------------------------|----------------------|------------------------|-----------------------|
E|-2----------------------|-4--------------------|-5----------------------|-5----------5----------|


   E   E   E   Q    E  Q    Q     E   Q    E  Q    Q    E  Q    E  Q        W
e|-------------0----------|-----------0----------|---------0--------------|-0---------------------|
B|---------0--------0-----|-------0--------0-----|------0-------0---------|-5---------------------|
G|-1h--2---------------2--|-4-----------------4--|-6---------------6------|-6---------------------|
D|------------------------|----------------------|------------------------|-7---------------------|
A|------------------------|----------------------|------------------------|-7---------------------|
E|-2----------------------|-4--------------------|-5----------------------|-5---------------------|




| Order
| -----------
| Intro
| Verse
| Verse
| Chorus
| Mini-Bridge
| Verse
| Chorus
| Bridge
| Chorus
| Chorus
| Outro




| E  eight note
| Q  quarter note
| W  whole note
| /  slide up
| \  slide down
| h  hammer-on
| p  pull-off
| ~  vibrato
| +  harmonic
| x  Mute note
===================================================================================================
Suggest correction
Give kudos to tab author, rate the tab!
1 2 3 4 5
comments
print report bad tab
guest
You may want to rate the tab now too:
select rating
Wanna post a correction for this tab? Suggest correction