Oops, an error
Loading. Please wait.

All In A Daze Work Tab

version 1
version 1

Whole song

  • Figured out actual tuning on the record, and it ma... Show more

Interactive

379 views 66 this week
2 commentsread comments
1 2 3 4 5
x 4
add to favorites
launch autoscroll
font size
0
reset
how to read this tab
guitar tuner
Autoscroll
slow
fast
+/-
esc
set tempo
stop
Help us to improve Ultimate-Guitar.com Take our survey!
×
Author
Difficulty
Tuning
Capo
intermediate
E A D G B E
1st fret
About this tab version
Figured out actual tuning on the record, and it makes the banjo-like arpeggio flow smoothly. Was this info helpful? Yes No
I think he uses a "variation" of Drop C tuning in this song: C-A-D-G-B-e
On some live recordings it's even lower than this tuning, but i am 95% sure that this is the tuning on
the album version.

(Writing down the chords would be nice too but the banjo-like arpeggio makes the real difference)

[Intro]

e|-----------------0--------------|-----------------0--------------|-----------------0--------------|
B|-----------------------0--------|-----------------------0--------|-------0---------------0--------|
G|-------0-------------------0----|-----------0---------------0----|-0h2-------2---------------2----|
D|-2---------2--------------------|-------5------------------------|-----2-------2-------2-------0--|
A|-----0-------0-------0-------0--|-----3-------3-------3-------3--|-0---------------0--------------|
C|--------------------------------|-0------------------------------|--------------------------------|

e|-----------------0--------------|-----------------0--------------|-----------0-----0--------------|
B|-----------------------0--------|-----------0-----------0--------|-----------------------0--------|
G|-----------0--------------------|-------0-------------------0----|-------0------------------------|
D|-------5------------------------|-----7-------7-------7-------0--|-----5-------5-------5----------|
A|-----3-------3-------3----------|-5------------------------------|-3------------------------------|
C|-0------------------------------|--------------------------------|--------------------------------|

e|-----------------0--------------|-----------------0--------------|-----------------0--------------|
B|-------0---------------0--------|-----------------------0--------|-----------------------0--------|
G|-0h2-------2---------------2----|-----------0---------------0----|-----------0--------------------|
D|-----2-------2-------2-------0--|-------5------------------------|-------5------------------------|
A|-0---------------0--------------|-----3-------3-------3-------3--|-----3-------3-------3----------|
C|--------------------------------|-0------------------------------|-0------------------------------|

[Verse 1]

e|-----------------0--------------|-----------------0--------------|-----------------0--------------|
B|-----------------------0--------|-----------------------0--------|-------0---------------0--------|
G|-------0------------------------|-----------0--------------------|-0h2-------2--------------------|
D|-2---------2--------------------|-------5------------------------|-----2-------2-------2----------|
A|-----0-------0-------0----------|-----3-------3-------3----------|-0---------------0--------------|
C|--------------------------------|-0------------------------------|--------------------------------|
              Chinese charms and         well-tanked in Burbank         Strumming unsuccessfully but..
              Hey Jack of diamonds .. all jack of horse                 Hey man I believe I'm floating and..

e|-----------------0--------------|
B|-----------------------0--------|
G|-----------0--------------------|
D|-------5------------------------|
A|-----3-------3-------3----------|
C|-0------------------------------|
     moreso just pressin' keys and
     of course of course

[Bridge & Chorus]

e|-----------------0--------------|-----------------0--------------|
B|-----------------------0--------|-----------------------0--------|
G|-------0------------------------|-----------0---------------0´---|
D|-2*--------2---------------0----|-------5------------------------|
A|-----0-------0-------0-------0--|-----3-------3-------3-------3´-|
C|--------------------------------|-0------------------------------|
       Guess I got my mind         well twisted didn't I, well..
               Aaaall iii-         na daze work, and...            >> Repeat 4 times (*: sometimes 0h2)
               Aaaall in a...     all in a..  all in a             (´: omit here)
    daze ...       work

+1 bar at the end:

e|-----------------0--------------|
B|-----------------------0--------|
G|-----------0--------------------|
D|-------5-------------------0----|
A|-----3-------3-------3-------3--|
C|-0------------------------------|

[Bridge to Verse 2]

e|-----------------0--------------|-----------------0--------------|-----------------0--------------|
B|-----------0-----------0--------|-----------0-----------0--------|-------0---------------0--------|
G|-------0-------------------0----|-------0-------------------0----|-0h2-------2---------------2----|
D|-----7-------7-------7-------0--|-----5-------5-------5-------5--|-----2-------2-------2-------0--|
A|-5------------------------------|-3------------------------------|-0---------------0--------------|
C|--------------------------------|--------------------------------|--------------------------------|

e|-1-----0------------------------|-----------------0--------------|-----------------0--------------|
B|-----------3-----1-----0--------|-----------------------0--------|-----------------------0--------|
G|-----2-------2-------2-----2-0--|-----------0---------------0----|-----------0--------------------|
D|-0---------------0--------------|-------5------------------------|-------5------------------------|
A|--------------------------------|-----3-------3-------3-------3--|-----3-------3-------3----------|
C|--------------------------------|-0------------------------------|-0------------------------------|

[Verse 2]

e|-----------------0--------------|-----------------0--------------|-----------------0--------------|
B|-----------------------0--------|-----------------------0--------|-------0---------------0--------|
G|-------0------------------------|-----------0--------------------|-0h2-------2--------------------|
D|-2---------2--------------------|-------5------------------------|-----2-------2-------2----------|
A|-----0-------0-------0----------|-----3-------3-------3----------|-0---------------0--------------|
C|--------------------------------|-0------------------------------|--------------------------------|
   She come flying thru like a     travelling gypsy show tor-       na-              do


e|-1-----0------------------------|-----------------0--------------|
B|-----------3-----1-----0--------|-----------------------0--------|
G|-----2-------2-------2----------|-----------0--------------------|
D|-0---------------0--------------|-------5------------------------|
A|--------------------------------|-----3-------3-------3----------|
C|--------------------------------|-0------------------------------|
   Leaving us      lying there     bleeding


e|-----------------0--------------|--------------------------------|
B|-----------0-----------0--------|-----------0--------------------|
G|-------0------------------------|-------0------------------------|
D|-----7-------7-------7----------|-----5--------------------------|
A|-5------------------------------|-3-----------3------------------|
C|--------------------------------|--------------------------------|
        Cut wide       open        hearts    broken

[Bridge & Chorus] again

..and then: 

[Final part 1]

e|--------------------------------|--------------------------------|
B|-------0---------------3--------|-------0---------------3--------|
G|-2---------2-----2/4-------2----|-2---------2-----2/4-------2----|
D|-----0-------0-------0-------0--|-----0-------0-------0-------0--|
A|--------------------------------|--------------------------------|
C|--------------------------------|--------------------------------|

e|-----------------0--------------|-----------------0--------------|
B|-----------0-----------0--------|-----------0-----------0--------|
G|-------0-------------------0----|-------0-------------------0*---|
D|-----5-------5-------5-------5--|-----5-------5-------5-------5*-|
A|-3------------------------------|-3------------------------------|
C|--------------------------------|--------------------------------|

(repeat twice, omit *s at the end)

[Final part 2]

e|-----------------3-----2---0----|--------------------------------|
B|-------0------------------------|-0---------------------0--------|
G|-0h2-------2--------------------|-------2---------0h2-------2----|
D|-----2-------2-------2-------2--|-----2-------2-------2-------0--|
A|--------------------------------|--------------------------------|
C|--------------------------------|--------------------------------|

e|-----------------0--------------|-----------------0--------------|
B|-----------0-----------0--------|-----------0-----------0--------|
G|-------0-------------------0----|-------0-------------------0*---|
D|-----5-------5-------5-------5--|-----5-------5-------5-------5*-|
A|-3------------------------------|-3------------------------------|
C|--------------------------------|--------------------------------|

Repeat Final Part 1 once more and then repeat Final Part 2 until the end (this time don't omit any notes)

***********************************

| h   Hammer-on
| /   Slide-up

***********************************

~~~~~~~~~~~~~~~~~~~~~~~~~~~~~~~~~~~~~~~~~~~~~~~~~~~~~~~~~~~~
This was my ever first tab from scratch, hope it's all ok :)
~~~~~~~~~~~~~~~~~~~~~~~~~~~~~~~~~~~~~~~~~~~~~~~~~~~~~~~~~~~~
Suggest correction
comments
print report bad tab
2 comments total.
+2 reply
aouhdesbois 16 Nov 04, 2016 04:55 PM

Thanks man I've been waiting for this tab to come out for a long time now. Been trying to figure out the tuning too and ended up on C drop as well, sounds good to me! And you're right he omits the capo for most of the live versions.

0 reply
uluorta 34 Nov 07, 2016 06:51 PM, edited on November 8 2016, 07:08 pm

Great to hear that! And thank you for the nice corrections ;)

guest
You may want to rate the tab now too:
select rating
Wanna post a correction for this tab? Suggest correction