Oops, an error
Loading. Please wait.

I Know I Got Religion tab

97 views 18 this week
no commentswrite comment
1 2 3 4 5
3 more votes to show rating
add to favorites
×
Save as Personal and add changes to this tab that will be seen only by you. Learn more ›
×
You can save this tab as Personal to edit and correct it or add notes. All changes will be seen only by you. Learn more »
launch autoscroll
font size
0
reset
how to read this tab
guitar tuner
edit
Autoscroll
slow
fast
+/-
esc
set tempo
stop
About this tab version
The chords name aren't 100% accurate, they refer more to the chord structure. They are here to have a few points of reference. Only the downstrokes are written. Pay attention to the upstrokes when listening to the song. It is filled with a lot of variations, I only wrote a few. Was this info helpful? Yes No
This is the Square Shells EP version (https://www.youtube.com/watch?v=SOls9NYnE0U).
Structure is a bit complexe, watch out and have fun !

[Intro]
    C              C              C              C
e|--0--0--0--0--|--0--0--0--0--|--0--0--0--0--|--0--0--0--0--|
B|--1--1--1--1--|--1--1--1--1--|--1--1--1--1--|--1--1--1--1--|
G|--0--0--0--0--|--0--0--0--0--|--0--0--0--0--|--0--0--0--0--|
D|--2--2--2--2--|--2--2--2--2--|--2--2--2--2--|--2--2--2--2--|
A|--3--3--3--3--|--3--3--3--3--|--3--3--3--3--|--3--3--3--3--|
C|--0--0--0--0--|--0--0--0--0--|--0--0--0--0--|--0--0--0--0--|

    C              E     F
e|--0--0--0--0--|--0--0--1--0--|
B|--1--1--1--1--|--1--0--1--1--|
G|--4--4--0--0--|--0--0--2--2--|
D|--2--2--2--2--|--2--2--3--3--| x3
A|--3--3--3--3--|--2--2--------|
C|--0--0--0--0--|--0--0--------|

    E     C
e|--0--0--0--0--|
B|--1--1--1--1--|
G|--0--0--0--0--|
D|--2--2--2--2--| x3
A|--2--2--3--3--|
C|--0--0--0--0--|

    Dm    C              Dm    C              Dm    F        C
e|--1--0--0--0--0--0--|--1--0--0--0--0--0--|--1--0--0--0--|--0--0--0--0--0--0--|
B|--3--3--1--1--1--1--|--3--3--1--1--1--1--|--3--3--1--1--|--1--1--1--1--1--1--|
G|--2--2--4--4--0--0--|--2--2--4--4--0--0--|--2--2--2--0--|--4--4--0--0--0--0--|
D|--0--0--2--2--2--2--|--0--0--2--2--2--2--|--0--0--3--3--|--2--2--2--2--2--2--|
A|--------3--3--3--3--|--------3--3--3--3--|--------3--3--|--3--3--3--3--3--3--|
C|--------0--0--0--0--|--------0--0--0--0--|--------0--0--|--0--0--0--0--0--0--|

    F  E  C           E  F  C           F  E  C           E  F  C
e|--0--0--0--0--0--|--0--0--0--0--0--|--0--0--0--0--0--|--0--0--0--0--0--|
B|--1--1--1--1--1--|--1--1--1--1--1--|--1--1--1--1--1--|--1--1--1--1--1--|
G|--2--0--0--0--0--|--0--2--0--0--0--|--2--0--0--0--0--|--0--2--0--0--0--|
D|--3--2--2--2--2--|--2--3--2--2--2--|--3--2--2--2--2--|--2--3--2--2--2--|
A|--3--2--3--3--3--|--2--3--3--3--3--|--3--2--3--3--3--|--2--3--3--3--3--|
C|--------0--0--0--|--------0--0--0--|--------0--0--0--|--------0--0--0--|

    G     C
e|--3--3--0--0--0--0--|--0--0--0--0--|
B|--0--0--1--1--1--1--|--1--1--1--1--|
G|--0--0--0--0--0--0--|--0--0--0--0--|
D|--0--0--2--2--2--2--|--2--2--2--2--|
A|--2--2--3--3--3--3--|--3--3--3--3--|
C|--2--2--0--0--0--0--|--0--0--0--0--|

[Chorus]
    C     F           C        C     F     C     F        G              C     F           C
e|--0--0--0--0--3--3--0--0--|--3--3--0--0--3--3--0--0--|--3--3--3--3--|--0--0--0--0--3--3--0--0--|
B|--1--1--1--1--1--1--1--1--|--1--1--1--1--1--1--1--1--|--0--0--0--0--|--1--1--1--1--1--1--1--1--|
G|--0--0--2--2--2--0--0--0--|--0--0--2--2--0--0--2--2--|--0--0--0--0--|--0--0--2--2--2--0--0--0--|
D|--2--0--3--3--3--0--2--2--|--2--2--3--3--2--2--3--3--|--0--0--0--0--|--2--0--3--3--3--0--2--2--|
A|--3--3--------------3--3--|--3--3--------3--3--------|--2--2--2--2--|--3--3--------------3--3--|
C|--------------------------|--------------------------|--2--2--2--2--|--------------------------|
  Yeah I know I got religion  It took me away
                                           It took me away
                                                        Yeah         relocating my caddy to the golden highway

[Break]
    C                 F        C                 F
e|-----0--0--0--0--0--0--0--|-----0--0--0--0--0--0--0--|
B|-----3b-3b-3b-1--1--1--1--|-----3b-3b-3b-1--1--1--1--|
G|--------------0--0--2--0--|--------------0--0--2--0--|
D|--------------------3--3--|--------------------3--3--|
A|--3--3--3--3--3--3--------|--3--3--3--3--3--3--------|
C|--0-----------------------|--0-----------------------|

    C                 F        C           F     C                 F
e|--0--3--0--0--0--0--0--0--|--0--0--0--0--0--0--0--0--0--0--0--0--0--0--|
B|--3--1--1--1--3--1--1--1--|--1--1--1--1--1--1--1--1--1--1--1--1--1--1--|
G|--0--0--0--0--0--0--2--0--|--0--0--0--0--2--2--0--0--0--0--0--0--2--2--|
D|--2--2--2--2--2--2--3--3--|--2--0--2--0--3--3--2--0--2--0--2--0--3--3--|
A|--3--3--3--3--2--2--------|--3--3--3--3--3--3--3--3--3--3--3--3--3--3--|
C|--------------------------|--------------------------------------------|
(Pay attention to the upstrokes on this part (I haven't written them))

[Verse]
    C              E     F
e|--0--0--0--0--|--0--0--1--0--|
B|--1--1--1--1--|--1--0--1--1--|
G|--4--4--0--0--|--0--0--2--2--|
D|--2--2--2--2--|--2--2--3--3--|
A|--3--3--3--3--|--2--2--------|
C|--0--0--0--0--|--0--0--------|
  Getting myself all cracked up on the poppy and pills

    C              E     F
e|--0--0--0--0--|--0--0--1--0--|
B|--1--1--1--1--|--1--0--1--1--|
G|--4--4--0--0--|--0--0--2--2--|
D|--2--2--2--2--|--2--2--3--3--|
A|--3--3--3--3--|--2--2--------|
C|--0--0--0--0--|--0--0--------|
  Cranberry orange vodka spills

    C              E     F        C
e|--0--0--0--0--|--0--0--1--0--|--0--0--0--0--0--0--|
B|--1--1--1--1--|--1--0--1--1--|--1--1--1--1--1--1--|
G|--4--4--0--0--|--0--0--2--2--|--4--4--0--0--0--0--|
D|--2--2--2--2--|--2--2--3--3--|--2--2--2--2--2--2--|
A|--3--3--3--3--|--2--2--------|--3--3--3--3--3--3--|
C|--0--0--0--0--|--0--0--------|--0--0--0--0--0--0--|
  But I can see those distant hills

    Dm    C              Dm    C              Dm    F        C
e|--1--0--0--0--0--0--|--1--0--0--0--0--0--|--1--0--0--0--|--0--0--0--0--0--0--|
B|--3--3--1--1--1--1--|--3--3--1--1--1--1--|--3--3--1--1--|--1--1--1--1--1--1--|
G|--2--2--4--4--0--0--|--2--2--4--4--0--0--|--2--2--2--0--|--4--4--0--0--0--0--|
D|--0--0--2--2--2--2--|--0--0--2--2--2--2--|--0--0--3--3--|--2--2--2--2--2--2--|
A|--------3--3--3--3--|--------3--3--3--3--|--------3--3--|--3--3--3--3--3--3--|
C|--------0--0--0--0--|--------0--0--0--0--|--------0--0--|--0--0--0--0--0--0--|
  And this is where I want to be
                       With human of her craft is made
                                            Now everything I see like Jesus drafted me

[Pre-Chorus]
    F  E  C           E  F  C           F  E  C           E  F  C
e|--0--0--0--0--0--|--0--0--0--0--0--|--0--0--0--0--0--|--0--0--0--0--0--|
B|--1--1--1--1--1--|--1--1--1--1--1--|--1--1--1--1--1--|--1--1--1--1--1--|
G|--2--0--0--0--0--|--0--2--0--0--0--|--2--0--0--0--0--|--0--2--0--0--0--|
D|--3--2--2--2--2--|--2--3--2--2--2--|--3--2--2--2--2--|--2--3--2--2--2--|
A|--3--2--3--3--3--|--2--3--3--3--3--|--3--2--3--3--3--|--2--3--3--3--3--|
C|--------0--0--0--|--------0--0--0--|--------0--0--0--|--------0--0--0--|

    G     C           F  E  C           E  F  C           F  E  C
e|--3--3--0--0--0--|--0--0--0--0--0--|--0--0--0--0--0--|--0--0--0--0--0--|
B|--0--0--1--1--1--|--1--1--1--1--1--|--1--1--1--1--1--|--1--1--1--1--1--|
G|--0--0--0--0--0--|--2--0--0--0--0--|--0--2--0--0--0--|--2--0--0--0--0--|
D|--0--0--2--2--2--|--3--2--2--2--2--|--2--3--2--2--2--|--3--2--2--2--2--|
A|--2--2--3--3--3--|--3--2--3--3--3--|--2--3--3--3--3--|--3--2--3--3--3--|
C|--2--2--0--0--0--|--------0--0--0--|--------0--0--0--|--------0--0--0--|

    G     C
e|--3--3--0--0--0--0--|--0--0--0--0--|
B|--0--0--1--1--1--1--|--1--1--1--1--|
G|--0--0--0--0--0--0--|--0--0--0--0--|
D|--0--0--2--2--2--2--|--2--2--2--2--|
A|--2--2--3--3--3--3--|--3--3--3--3--|
C|--2--2--0--0--0--0--|--0--0--0--0--|

[Chorus]
    C     F           C        C     F     C     F        G              C     F           C
e|--0--0--0--0--3--3--0--0--|--3--3--0--0--3--3--0--0--|--3--3--3--3--|--0--0--0--0--3--3--0--0--|
B|--1--1--1--1--1--1--1--1--|--1--1--1--1--1--1--1--1--|--0--0--0--0--|--1--1--1--1--1--1--1--1--|
G|--0--0--2--2--2--0--0--0--|--0--0--2--2--0--0--2--2--|--0--0--0--0--|--0--0--2--2--2--0--0--0--|
D|--2--0--3--3--3--0--2--2--|--2--2--3--3--2--2--3--3--|--0--0--0--0--|--2--0--3--3--3--0--2--2--|
A|--3--3--------------3--3--|--3--3--------3--3--------|--2--2--2--2--|--3--3--------------3--3--|
C|--------------------------|--------------------------|--2--2--2--2--|--------------------------|
  Yeah, I dropped myself a penny off the william penn's head
                             Yeah, I watched the fall off the city hall
                                                        Yeah, I get my pictures In seventy-six

[Break]
    C                 F        C                 F
e|-----0--0--0--0--0--0--0--|-----0--0--0--0--0--0--0--|
B|-----3b-3b-3b-1--1--1--1--|-----3b-3b-3b-1--1--1--1--|
G|--------------0--0--2--0--|--------------0--0--2--0--|
D|--------------------3--3--|--------------------3--3--|
A|--3--3--3--3--3--3--------|--3--3--3--3--3--3--------|
C|--0-----------------------|--0-----------------------|

    C                 F        C           F     C                 F
e|--0--3--0--0--0--0--0--0--|--0--0--0--0--0--0--0--0--0--0--0--0--0--0--|
B|--3--1--1--1--3--1--1--1--|--1--1--1--1--1--1--1--1--1--1--1--1--1--1--|
G|--0--0--0--0--0--0--2--0--|--0--0--0--0--2--2--0--0--0--0--0--0--2--2--|
D|--2--2--2--2--2--2--3--3--|--2--0--2--0--3--3--2--0--2--0--2--0--3--3--|
A|--3--3--3--3--2--2--------|--3--3--3--3--3--3--3--3--3--3--3--3--3--3--|
C|--------------------------|--------------------------------------------|
  (Pay attention to the upstrokes on this part (I haven't written them))

[Verse]
    C              E     F
e|--0--0--0--0--|--0--0--1--0--|
B|--1--1--1--1--|--1--0--1--1--|
G|--4--4--0--0--|--0--0--2--2--|
D|--2--2--2--2--|--2--2--3--3--|
A|--3--3--3--3--|--2--2--------|
C|--0--0--0--0--|--0--0--------|
  Friends of the mind in a jar of the psychedelical kind

    C              Dm    F
e|--0--0--0--0--|--1--0--0--0--|
B|--1--1--1--1--|--3--3--1--1--|
G|--4--4--0--0--|--2--2--2--0--|
D|--2--2--2--2--|--------3--3--|
A|--3--3--3--3--|--------------|
C|--0--0--0--0--|--------------|
  I won't be kind, I won't rewind

    C                    C
e|--0--0--0--0--0--0--|--0--0--0--0--0--0--0--0--|
B|--1--1--1--1--1--1--|--1--1--1--1--1--1--1--1--|
G|--4--4--0--0--0--0--|--4--4--0--0--0--0--0--0--|
D|--2--2--2--2--2--2--|--2--2--2--2--2--2--2--2--|
A|--3--3--3--3--3--3--|--3--3--3--3--3--3--3--3--|
C|--0--0--0--0--0--0--|--0--0--0--0--0--0--0--0--|

    C              E     F        C
e|--0--0--0--0--|--0--0--1--0--|--0--0--0--0--0--0--0--0--|
B|--1--1--1--1--|--1--0--1--1--|--1--1--1--1--1--1--1--1--|
G|--4--4--0--0--|--0--0--2--2--|--4--4--0--0--0--0--0--0--|
D|--2--2--2--2--|--2--2--3--3--|--2--2--2--2--2--2--2--2--|
A|--3--3--3--3--|--2--2--------|--3--3--3--3--3--3--3--3--|
C|--0--0--0--0--|--0--0--------|--0--0--0--0--0--0--0--0--|
  The friends that I had played too cool, I cut them off from the fire

    C              E     Dm       C
e|--0--0--0--0--|--0--0--1--0--|--0--0--0--0--0--0--|
B|--1--1--1--1--|--1--0--1--1--|--1--1--1--1--1--1--|
G|--4--4--0--0--|--0--0--2--2--|--4--4--0--0--0--0--|
D|--2--2--2--2--|--2--2--3--3--|--2--2--2--2--2--2--|
A|--3--3--3--3--|--2--2--------|--3--3--3--3--3--3--|
C|--0--0--0--0--|--0--0--------|--0--0--0--0--0--0--|
  Now I stopped using picks and not a thing between me and my guitar

    Dm    C              Dm    C              Dm    F        C
e|--1--0--0--0--0--0--|--1--0--0--0--0--0--|--1--0--0--0--|--0--0--0--0--0--0--|
B|--3--3--1--1--1--1--|--3--3--1--1--1--1--|--3--3--1--1--|--1--1--1--1--1--1--|
G|--2--2--4--4--0--0--|--2--2--4--4--0--0--|--2--2--2--0--|--4--4--0--0--0--0--|
D|--0--0--2--2--2--2--|--0--0--2--2--2--2--|--0--0--3--3--|--2--2--2--2--2--2--|
A|--------3--3--3--3--|--------3--3--3--3--|--------3--3--|--3--3--3--3--3--3--|
C|--------0--0--0--0--|--------0--0--0--0--|--------0--0--|--0--0--0--0--0--0--|
  Now I'm strumming away Everyday when I feel blue I write a strummer for you

    F  E  C           E  F  C           F  E  C           E  F  C
e|--0--0--0--0--0--|--0--0--0--0--0--|--0--0--0--0--0--|--0--0--0--0--0--|
B|--1--1--1--1--1--|--1--1--1--1--1--|--1--1--1--1--1--|--1--1--1--1--1--|
G|--2--0--0--0--0--|--0--2--0--0--0--|--2--0--0--0--0--|--0--2--0--0--0--|
D|--3--2--2--2--2--|--2--3--2--2--2--|--3--2--2--2--2--|--2--3--2--2--2--|
A|--3--2--3--3--3--|--2--3--3--3--3--|--3--2--3--3--3--|--2--3--3--3--3--|
C|--------0--0--0--|--------0--0--0--|--------0--0--0--|--------0--0--0--|
  You yourself have said we can't get an ahead
                                      But I said that you have won if we got religion

    G     C           E  F  C           F  E  C           E  F  C
e|--3--3--0--0--0--|--0--0--0--0--0--|--0--0--0--0--0--|--0--0--0--0--0--|
B|--0--0--1--1--1--|--1--1--1--1--1--|--1--1--1--1--1--|--1--1--1--1--1--|
G|--0--0--0--0--0--|--0--2--0--0--0--|--2--0--0--0--0--|--0--2--0--0--0--|
D|--0--0--2--2--2--|--2--3--2--2--2--|--3--2--2--2--2--|--2--3--2--2--2--|
A|--2--2--3--3--3--|--2--3--3--3--3--|--3--2--3--3--3--|--2--3--3--3--3--|
C|--2--2--0--0--0--|--------0--0--0--|--------0--0--0--|--------0--0--0--|
  Religion, it's got me in its sway

    G     C
e|--3--3--0--0--0--0--|--0--0--0--0--|
B|--0--0--1--1--1--1--|--1--1--1--1--|
G|--0--0--0--0--0--0--|--0--0--0--0--|
D|--0--0--2--2--2--2--|--2--2--2--2--|
A|--2--2--3--3--3--3--|--3--3--3--3--|
C|--2--2--0--0--0--0--|--0--0--0--0--|

[Chorus]
    C     F           C        C     F     C     F        G              C     F           C
e|--0--0--0--0--3--3--0--0--|--3--3--0--0--3--3--0--0--|--3--3--3--3--|--0--0--0--0--3--3--0--0--|
B|--1--1--1--1--1--1--1--1--|--1--1--1--1--1--1--1--1--|--0--0--0--0--|--1--1--1--1--1--1--1--1--|
G|--0--0--2--2--2--0--0--0--|--0--0--2--2--0--0--2--2--|--0--0--0--0--|--0--0--2--2--2--0--0--0--|
D|--2--0--3--3--3--0--2--2--|--2--2--3--3--2--2--3--3--|--0--0--0--0--|--2--0--3--3--3--0--2--2--|
A|--3--3--------------3--3--|--3--3--------3--3--------|--2--2--2--2--|--3--3--------------3--3--|
C|--------------------------|--------------------------|--2--2--2--2--|--------------------------|
  Yeah I know I got religion  It took me away
                                           It took me away
                                                        Yeah        relocating my caddy to the golden highway


************************************

| b   Bend

************************************
Suggest correction
Creating personal tab
Creating personal tab
You can edit any tab online and save it as your Personal.

You can edit, replace or remove any tab part or add personal notes – all changes will be seen only by you.

Personal tabs can be accessed anytime from any device, even offline.
Learn more »
Give kudos to tab author, rate the tab!
1 2 3 4 5
comments
print report bad tab
guest
You may want to rate the tab now too:
select rating
Wanna post a correction for this tab? Suggest correction