Oops, an error
Loading. Please wait.

Wheelhouse tab

version 2
version 2

Whole song

2,365 views 33 this week
1 commentread comment
1 2 3 4 5
x 4
add to favorites
×
Save as Personal and add changes to this tab that will be seen only by you. Learn more ›
×
You can save this tab as Personal to edit and correct it or add notes. All changes will be seen only by you. Learn more »
launch autoscroll
font size
0
reset
how to read this tab
guitar tuner
edit
Autoscroll
slow
fast
+/-
esc
set tempo
stop
Author
Difficulty
intermediate
-------------------------------------------------------------------------------
                             WHEELHOUSE - Kurt Vile
-------------------------------------------------------------------------------
Tabbed by: TheRogueRocket (stu)


The other tab for this song was very close, but I wanted to make a few corrections.
Based on this live performance: https://www.youtube.com/watch?v=8-jABSI91fI

Tuning: D# A# D# G c d#

[Intro/Interlude:]

d#|---------0--------0---------0----4--2--0-----------------------------------|
C |------2----2----2----2----0---0-----------2--3-3-3-3-3--2--2h3p2-----------|
G |---3---------3----------0-----------------------------------------0--------|
D#|---------------------------------------------------------------------------|
A#|---------------------------------------------------------------------------|
D#|---------------------------------------------------------------------------|

d#|------------------------------------------------------------------------------|
C |-------------2---2--0---------------------------------------------------------|
G |-----------3---3-------3--0--------0------------------------------------------|
D#|--0h2b-0---------------------2---2---2--0---------------------2----4--2--0----|
A#|------------------------------------------4/5-5-5-5-5--0h4h5---------------4--|
D#|------------------------------------------------------------------------------|


Main riff that repeats throughout

d#|---------------------------------------------------------------------------|
C |---------------------------------------------------------------------------|
G |---------0----------0-----------0-----------0----------0---------0---------| ...and so on
D#|------0----------0-----------0-----------0----------0---------0------------|
A#|---2--------2-0-------0-0h2---------2-0--------0-2-------2-0--------0------|
D#|---------------------------------------------------------------------------|

Alternate to this occasionally then return immediately to the main riff

d#|---------------------------------------------------------------------------|
C |---------------------------------------------------------------------------|
G |--------5-----------3-----------5-----------3---------0---------0----------|
D#|-----4-----4-----2-----2-----4-----4-----2---------0---------0-------------|
A#|--5-----------0-----------5-----------0---------2--------2-0---------------|
D#|---------------------------------------------------------------------------|

Kurt will also occasionally do something like...

d#|---------------------------------------------------------------------------|
C |---------------------------------------------------------------------------|
G |----------0---------0----------0----------0------------0----------0--------|
D#|-------0---------0----------0----------0-------------0---------0-----------|
A#|--0/5-------5/7--------7\5--------5-0---------0-0h2-------2-0--------------|
D#|---------------------------------------------------------------------------|


That's basically it, turn down your tone nob to darken your sound a bit and add a little
reverb and you're set.


************************************

| h  Hammer-on
| p  Pull-off
| b  Bend
| /  Slide up
| \  Slide down 

************************************

            
            
Suggest correction
Creating personal tab
Creating personal tab
You can edit any tab online and save it as your Personal.

You can edit, replace or remove any tab part or add personal notes – all changes will be seen only by you.

Personal tabs can be accessed anytime from any device, even offline.
Learn more »
comments
print report bad tab
1 comment total.
+2 reply
Bielorusse 317 Feb 17, 2016 11:52 AM

Great tab, thank you very much

guest
You may want to rate the tab now too:
select rating
Wanna post a correction for this tab? Suggest correction