Oops, an error
Loading. Please wait.

Throughout Your Years bass

16 views 1 this week
no commentswrite comment
1 2 3 4 5
2 more votes to show rating
add to favorites
×
Save as Personal and add changes to this tab that will be seen only by you. Learn more ›
×
You can save this tab as Personal to edit and correct it or add notes. All changes will be seen only by you. Learn more »
launch autoscroll
font size
0
reset
guitar tuner
edit
Autoscroll
slow
fast
+/-
esc
set tempo
stop
Artist: Kurtis Blow
Song: Throughout Your Years
Tuning - Standard
tabbed by electricbunny
 
[Intro]                                                             
G|--------------------------------|--------------------------------|
D|------------------------1-------|------------------------3---1---|
A|--------------------------------|1-------1-------1-----1---------|
E|--------------------------------|--------------------------------|
 
G|--------------------------------|--------------------------------|
D|0-----0-------------------------|----------------------------0---|
A|--------3---1-----------1---2---|3-------3-------3-----3-3-------|
E|----------------3-----3---------|--------------------------------|
 
                                  [Verse]                           
G|--------------------------------|--------------------------------|
D|3-----3-0-------3-3-------------|------------------------3---1---|
A|------------3---------------0---|1-------1-------1-----1---------|
E|----------------------1-1-------|--------------------------------|
 
G|--------------------------------|--------------------------------|
D|0-----0-------------------------|----------------------------0---|
A|--------3---1-----------1---2---|3-------3-------3-----3-3-------|
E|----------------3-----3---------|--------------------------------|
 
G|--------------------------------|--------------------------------|
D|3-----3-0-------3-3-------------|------------------------3---1---|
A|------------3---------------0---|1-------1-------1-----1---------|
E|----------------------1-1-------|--------------------------------|
 
G|--------------------------------|--------------------------------|
D|0-----0-------------------------|----------------------------0---|
A|--------3---1-----------1---2---|3-------3-------3-----3-3-------|
E|----------------3-----3---------|--------------------------------|
 
G|--------------------------------|--------------------------------|
D|3-----3-0-------3-3-------------|------------------------3---1---|
A|------------3---------------0---|1-------1-------1-----1---------|
E|----------------------1-1-------|--------------------------------|
 
G|--------------------------------|--------------------------------|
D|0-----0-------------------------|----------------------------0---|
A|--------3---1-----------1---2---|3-------3-------3-----3-3-------|
E|----------------3-----3---------|--------------------------------|
 
G|--------------------------------|--------------------------------|
D|3-----3-0-------3-3-------------|------------------------3---1---|
A|------------3---------------0---|1-------1-------1-----1---------|
E|----------------------1-1-------|--------------------------------|
 
G|--------------------------------|--------------------------------|
D|0-----0-------------------------|----------------------------0---|
A|--------3---1-----------1---2---|3-------3-------3-----3-3-------|
E|----------------3-----3---------|--------------------------------|
 
                                  [Chorus]                          
G|--------------------------------|0-------0-------0-----0---------|
D|3-----3-0-------3-3-------------|--------------------3-----0-----|
A|------------3---------------0---|--------------------------------|
E|----------------------1-1-------|--------------------------------|
 
G|--------------------------------|--------------------------------|
D|--------------------------------|0-------0-------0-----0-0---3---|
A|3-------3-------3-----3-3---3---|--------------------------------|
E|--------------------------------|--------------------------------|
 
G|0-------0-------0-----0---------|0-------0-------0-----0-0-------|
D|------------------------3---3---|----------------------------0---|
A|--------------------------------|--------------------------------|
E|--------------------------------|--------------------------------|
 
G|--------------------------------|--------------------------------|
D|--------------------------------|0-------0-------0-----0-----3---|
A|3-------3-------3---1-3---3-----|--------------------------------|
E|--------------------------------|--------------------------------|
 
G|0-----0---0---0-----------------|--------------------------------|
D|----------------3-----3---------|------------------------3---1---|
A|--------------------------------|1-------1-------1-----1---------|
E|--------------------------------|--------------------------------|
 
G|--------------------------------|--------------------------------|
D|0-----0-------------------------|----------------------------0---|
A|--------3---1-----------1---2---|3-------3-------3-----3-3-------|
E|----------------3-----3---------|--------------------------------|
 
G|--------------------------------|--------------------------------|
D|3-----3-0-------3-3-------------|------------------------3---1---|
A|------------3---------------0---|1-------1-------1-----1---------|
E|----------------------1-1-------|--------------------------------|
 
G|--------------------------------|--------------------------------|
D|0-----0-------------------------|----------------------------0---|
A|--------3---1-----------1---2---|3-------3-------3-----3-3-------|
E|----------------3-----3---------|--------------------------------|
 
                                  [Interlude]                       
G|--------------------------------|0-------0-------0-----0-0-------|
D|3-----3-0-------3-3-------------|----------------------------0---|
A|------------3---------------0---|--------------------------------|
E|----------------------1-1-------|--------------------------------|
 
G|--------------------------------|--------------------------------|
D|--------------------------------|0-------0-------0-----0-----3---|
A|3-------3-------3---1-3---3-----|--------------------------------|
E|--------------------------------|--------------------------------|
 
G|0-----0---0---0-----------------|--------------------------------|
D|----------------3-------0---3---|--------------------------------|
A|--------------------------------|3-------3-------3---1-3---3-----|
E|--------------------------------|--------------------------------|
 
G|--------------------------------|--------------------------------|
D|0-------0-------0-----0-----3---|0-----0---0---0---------0---3---|
A|--------------------------------|----------------3---------------|
E|--------------------------------|--------------------------------|
 
                                  [Verse]                           
G|0-----0---0---0-----------------|--------------------------------|
D|----------------3---3-----------|------------------------3---1---|
A|--------------------------------|1-------1-------1-----1---------|
E|------------------------1-------|--------------------------------|
 
G|--------------------------------|--------------------------------|
D|0-----0-------------------------|----------------------------0---|
A|--------3---1-----------1---2---|3-------3-------3-----3-3-------|
E|----------------3-----3---------|--------------------------------|
 
G|--------------------------------|--------------------------------|
D|3-----3-0-------3-3-------------|------------------------3---1---|
A|------------3---------------0---|1-------1-------1-----1---------|
E|----------------------1-1-------|--------------------------------|
 
G|--------------------------------|--------------------------------|
D|0-----0-------------------------|----------------------------0---|
A|--------3---1-----------1---2---|3-------3-------3-----3-3-------|
E|----------------3-----3---------|--------------------------------|
 
G|--------------------------------|--------------------------------|
D|3-----3-0-------3-3-------------|------------------------3---1---|
A|------------3---------------0---|1-------1-------1-----1---------|
E|----------------------1-1-------|--------------------------------|
 
G|--------------------------------|--------------------------------|
D|0-----0-------------------------|----------------------------0---|
A|--------3---1-----------1---2---|3-------3-------3-----3-3-------|
E|----------------3-----3---------|--------------------------------|
 
G|--------------------------------|--------------------------------|
D|3-----3-0-------3-3-------------|------------------------3---1---|
A|------------3---------------0---|1-------1-------1-----1---------|
E|----------------------1-1-------|--------------------------------|
 
G|--------------------------------|--------------------------------|
D|0-----0-------------------------|----------------------------0---|
A|--------3---1-----------1---2---|3-------3-------3-----3-3-------|
E|----------------3-----3---------|--------------------------------|
 
                                  [Pre-Chorus]                      
G|--------------------------------|0-------0-------0-----0---------|
D|3-----3-0-------3-3-------------|--------------------3-----0-----|
A|------------3---------------0---|--------------------------------|
E|----------------------1-1-------|--------------------------------|
 
G|--------------------------------|--------------------------------|
D|--------------------------------|0-------0-------0-----0-0---3---|
A|3-------3-------3-----3-3---3---|--------------------------------|
E|--------------------------------|--------------------------------|
 
G|0-------0-------0-----0---------|0-------0-------0-----0-0-------|
D|------------------------3---3---|----------------------------0---|
A|--------------------------------|--------------------------------|
E|--------------------------------|--------------------------------|
 
G|--------------------------------|--------------------------------|
D|--------------------------------|0-------0-------0-----0-----3---|
A|3-------3-------3---1-3---3-----|--------------------------------|
E|--------------------------------|--------------------------------|
 
                                  [Chorus]                          
G|0-----0---0---0-----------------|--------------------------------|
D|----------------3-----3---------|------------------------3---1---|
A|--------------------------------|1-------1-------1-----1---------|
E|--------------------------------|--------------------------------|
 
G|--------------------------------|--------------------------------|
D|0-----0-------------------------|----------------------------0---|
A|--------3---1-----------1---2---|3-------3-------3-----3-3-------|
E|----------------3-----3---------|--------------------------------|
 
G|--------------------------------|--------------------------------|
D|3-----3-0-------3-3-------------|------------------------3---1---|
A|------------3---------------0---|1-------1-------1-----1---------|
E|----------------------1-1-------|--------------------------------|
 
G|--------------------------------|--------------------------------|
D|0-----0-------------------------|----------------------------0---|
A|--------3---1-----------1---2---|3-------3-------3-----3-3-------|
E|----------------3-----3---------|--------------------------------|
 
                                  [Interlude]                       
G|--------------------------------|0-------0-------0-----0-0-------|
D|3-----3-0-------3-3-------------|----------------------------0---|
A|------------3---------------0---|--------------------------------|
E|----------------------1-1-------|--------------------------------|
 
G|--------------------------------|--------------------------------|
D|--------------------------------|0-------0-------0-----0-----3---|
A|3-------3-------3---1-3---3-----|--------------------------------|
E|--------------------------------|--------------------------------|
 
G|0-----0---0---0-----------------|0-------0-------0-----0-0-------|
D|----------------3-------0---3---|----------------------------0---|
A|--------------------------------|--------------------------------|
E|--------------------------------|--------------------------------|
 
G|--------------------------------|--------------------------------|
D|--------------------------------|0-------0-------0-----0-----3---|
A|3-------3-------3-----3-3---3---|--------------------------------|
E|--------------------------------|--------------------------------|
 
                                  [Verse]                           
G|0-----0---0---0-----------------|--------------------------------|
D|----------------3---------------|------------------------3---1---|
A|----------------------------1---|1-------1-------1-----1---------|
E|----------------------1-4-------|--------------------------------|
 
G|--------------------------------|--------------------------------|
D|0-----0-------------------------|----------------------------0---|
A|--------3---1-----------1---2---|3-------3-------3-----3-3-------|
E|----------------3-----3---------|--------------------------------|
 
G|--------------------------------|--------------------------------|
D|3-----3-0-------3-3-------------|------------------------3---1---|
A|------------3---------------0---|1-------1-------1-----1---------|
E|----------------------1-1-------|--------------------------------|
 
G|--------------------------------|--------------------------------|
D|0-----0-------------------------|----------------------------0---|
A|--------3---1-----------1---2---|3-------3-------3-----3-3-------|
E|----------------3-----3---------|--------------------------------|
 
G|--------------------------------|--------------------------------|
D|3-----3-0-------3-3-------------|------------------------3---1---|
A|------------3---------------0---|1-------1-------1-----1---------|
E|----------------------1-1-------|--------------------------------|
 
G|--------------------------------|--------------------------------|
D|0-----0-------------------------|----------------------------0---|
A|--------3---1-----------1---2---|3-------3-------3-----3-3-------|
E|----------------3-----3---------|--------------------------------|
 
G|--------------------------------|--------------------------------|
D|3-----3-0-------3-3-------------|------------------------3---1---|
A|------------3---------------0---|1-------1-------1-----1---------|
E|----------------------1-1-------|--------------------------------|
 
G|--------------------------------|--------------------------------|
D|0-----0-------------------------|----------------------------0---|
A|--------3---1-----------1---2---|3-------3-------3-----3-3-------|
E|----------------3-----3---------|--------------------------------|
 
                                  [Chorus]                          
G|--------------------------------|0-------0-------0-----0---------|
D|3-----3-0-------3-3-------------|--------------------3-----0-----|
A|------------3---------------0---|--------------------------------|
E|----------------------1-1-------|--------------------------------|
 
G|--------------------------------|--------------------------------|
D|--------------------------------|0-------0-------0-----0-0---3---|
A|3-------3-------3-----3-3---3---|--------------------------------|
E|--------------------------------|--------------------------------|
 
G|0-------0-------0-----0---------|0-------0-------0-----0-0-------|
D|------------------------3---3---|----------------------------0---|
A|--------------------------------|--------------------------------|
E|--------------------------------|--------------------------------|
 
G|--------------------------------|--------------------------------|
D|--------------------------------|0-------0-------0-----0-----3---|
A|3-------3-------3---1-3---3-----|--------------------------------|
E|--------------------------------|--------------------------------|
 
G|0-----0---0---0-----------------|--------------------------------|
D|----------------3-----3---------|------------------------3---1---|
A|--------------------------------|1-------1-------1-----1---------|
E|--------------------------------|--------------------------------|
 
G|--------------------------------|--------------------------------|
D|0-----0-------------------------|----------------------------0---|
A|--------3---1-----------1---2---|3-------3-------3-----3-3-------|
E|----------------3-----3---------|--------------------------------|
 
G|--------------------------------|--------------------------------|
D|3-----3-0-------3-3-------------|------------------------3---1---|
A|------------3---------------0---|1-------1-------1-----1---------|
E|----------------------1-1-------|--------------------------------|
 
G|--------------------------------|--------------------------------|
D|0-----0-------------------------|----------------------------0---|
A|--------3---1-----------1---2---|3-------3-------3-----3-3-------|
E|----------------3-----3---------|--------------------------------|
 
G|--------------------------------|0-------0-------0-----0-0-------|
D|3-----3-0-------3-3-------------|----------------------------0---|
A|------------3---------------0---|--------------------------------|
E|----------------------1-1-------|--------------------------------|
 
G|--------------------------------|--------------------------------|
D|--------------------------------|0-------0-------0-----0-----3---|
A|3-------3-------3---1-3---3-----|--------------------------------|
E|--------------------------------|--------------------------------|
 
G|0-----0---0---0-----------------|0-------0-------0-----0-0-------|
D|----------------3-------0---3---|----------------------------0---|
A|--------------------------------|--------------------------------|
E|--------------------------------|--------------------------------|
 
G|--------------------------------|--------------------------------|
D|--------------------------------|0-------0-------0-----0-----3---|
A|3-------3-------3---1-3---3-----|--------------------------------|
E|--------------------------------|--------------------------------|
 
                                  [Outro]                           
G|0-----0---0---0-----------------|--------------------------------|
D|----------------3-------0---3---|------------------------3---1---|
A|--------------------------------|1-------1-------1-----1---------|
E|--------------------------------|--------------------------------|
 
G|--------------------------------|--------------------------------|
D|0-----0-------------------------|----------------------------0---|
A|--------3---1-----------1---2---|3-------3-------3-----3-3-------|
E|----------------3-----3---------|--------------------------------|
 
G|--------------------------------|--------------------------------|
D|3-----3-0-------3-3-------------|------------------------3---1---|
A|------------3---------------0---|1-------1-------1-----1---------|
E|----------------------1-1-------|--------------------------------|
 
G|--------------------------------|--------------------------------|
D|0-----0-------------------------|----------------------------0---|
A|--------3---1-----------1---2---|3-------3-------3-----3-3-------|
E|----------------3-----3---------|--------------------------------|
 
G|--------------------------------|--------------------------------|
D|3-----3-0-------3-3-------------|------------------------3---1---|
A|------------3---------------0---|1-------1-------1-----1---------|
E|----------------------1-1-------|--------------------------------|
 
G|--------------------------------|--------------------------------|
D|0-----0-------------------------|----------------------------0---|
A|--------3---1-----------1---2---|3-------3-------3-----3-3-------|
E|----------------3-----3---------|--------------------------------|
 
G|--------------------------------|--------------------------------|
D|3-----3-0-------3-3-------------|------------------------3---1---|
A|------------3---------------0---|1-------1-------1-----1---------|
E|----------------------1-1-------|--------------------------------|
 
G|--------------------------------|--------------------------------|
D|0-----0-------------------------|----------------------------0---|
A|--------3---1-----------1---2---|3-------3-------3-----3-3-------|
E|----------------3-----3---------|--------------------------------|
 
G|--------------------------------|--------------------------------|
D|3-----3-0-------3-3-------------|------------------------3---1---|
A|------------3---------------0---|1-------1-------1-----1---------|
E|----------------------1-1-------|--------------------------------|
 
G|--------------------------------|--------------------------------|
D|0-----0-------------------------|----------------------------0---|
A|--------3---1-----------1---2---|3-------3-------3-----3-3-------|
E|----------------3-----3---------|--------------------------------|
 
G|--------------------------------|
D|3-----3-0-------3-3-------------|
A|------------3---------------0---|
E|----------------------1-1-------|

            
            
Suggest correction
Creating personal tab
Creating personal tab
You can edit any tab online and save it as your Personal.

You can edit, replace or remove any tab part or add personal notes – all changes will be seen only by you.

Personal tabs can be accessed anytime from any device, even offline.
Learn more »
Give kudos to tab author, rate the tab!
1 2 3 4 5
comments
print report bad tab
guest
You may want to rate the tab now too:
select rating
Wanna post a correction for this tab? Suggest correction