Oops, an error
Loading. Please wait.

Dry Tab

by Kutless
1,147 views 1 this week
1 commentread comment
1 2 3 4 5
x 4
add to favorites
launch autoscroll
font size
0
reset
how to read this tab
guitar tuner
×
Best way to learn
"Dry"
Autoscroll
slow
fast
+/-
esc
set tempo
stop
Author
----------------------------------------------------------------------------
                             Dry - Kutless
----------------------------------------------------------------------------
Tabbed by: Max Andersen
Email: deckrider@hotmail.com
Tuning: Drop-D
Key: 
| /  slide up
| \  slide down
| p  pull-off
| .  Palm mute 

Riff 1 
e|---------------------------------------------------------|
B|----------------------------------------3-----0----------|
G|-------0---0----------0---0-------0----------------------|
D|---4---------0----4-----------4-------4-----4-----4/5\4--|
A|----------------5---5---5---2---2---2-----2-----2--------|
D|-0---0---0-----------------------------------------------|

Riff 2 
e|---------------------------------------|
B|---------------------------------------|
G|o----------12-----------------12-------|
D|o-------12----12-----------12----12----|
A|-----10----------10-----10----------12-|
D|--10-----------------10----------------|


e|-----------------------------------|
B|-----------------------------------|
G|--------11--------------11--------o|
D|-----11----11--------11----11-----o|
A|---9----------9----9----------9----|
D|-9---------------9--------------9--|

Riff 3 
e|--------|
B|--------|
G|--------|
D|-9-9--5-|
A|-9-9--5-|
D|-9-9--5-|

                         
Riff 4 
e|-----------------------------------------------------------|
B|-----------------------------------------------------------|
G|o----------------------------------------------------------|
D|o-12\7-10-10-10-12-12-12-10-10-10-10-9-9-9-9-10-10-9-9-9-9-|
A|--12\7-10-10-10-10-10-10-10-10-10-10-9-9-9-9-9--9--9-9-9-9-|
D|--12\7-10-10-10-10-10-10-10-10-10-10-9-9-9-9-9--9--9-9-9-9-|
            .  .     .                   . .   .                 

e|---------------------------------------------|
B|---------------------------------------------|
G|--------------------------------------------o|
D|-10-10-10-12-12-12-10-10-10-10-9-9-9-10-9-5-o|
A|-10-10-10-10-10-10-10-10-10-10-9-9-9-9--9-5--|
D|-10-10-10-10-10-10-10-10-10-10-9-9-9-9--9-5--|
      .  .     .                   . .    .                 


Riff 5 
e|----------------------------------------------|
B|----------------------------------------------|
G|o-------7------------------------7------------|
D|o-0---7----0---7-5-4-0---------7----0-7-5-4-0-|
A|------------------------5/7\5-----------------|
D|----------------------------------------------|

e|------------------------------------------------|
B|------------------------------------------------|
G|------------------------------------7----------o|
D|--------4/5\4--------7-5-4-0--0---7---0--7-5-4-o|
A|-5/7\5--------5/7\5-----------------------------|
D|------------------------------------------------|


End on:
e|---|
B|---|
G|---|
D|-5-|
A|-5-|
D|-5-|


Thats all!!
============================================================================
Suggest correction
comments
print report bad tab
1 comment total.
0 reply
Rogue Guitar 10 Nov 17, 2007 09:56 PM

its all right but hard 2 read cus u dont write which bits r which

guest
You may want to rate the tab now too:
select rating
Wanna post a correction for this tab? Suggest correction