Oops, an error
Loading. Please wait.

Hearts Of The Innocent tab

version 4
version 4

Interactive

by Kutless
1,075 views 1 this week
1 commentread comment
1 2 3 4 5
2 more votes to show rating
add to favorites
×
Save as Personal and add changes to this tab that will be seen only by you. Learn more ›
×
You can save this tab as Personal to edit and correct it or add notes. All changes will be seen only by you. Learn more »
launch autoscroll
font size
0
reset
how to read this tab
guitar tuner
edit
Autoscroll
slow
fast
+/-
esc
set tempo
stop
-----------------------------------------------------------------------------
                    Hearts Of The Innocent - Kutless
-----------------------------------------------------------------------------

Tabbed By: Max Andersen 
E-Mail: metalhead_7075@yahoo.ca

If you have any quetsion or comments e-mail me.

Note: use windows WordPad; other word processors will squish it.

Tunning: Drop-Db

Intro:

riff 1
eb|-------------------------------------------|
Bb|-------------------------------------------|
Gb|o------------------------------------------|
Db|o------------------------------------------|
Ab|-------------------------------------------|
Db|--0-2-0-2-0-2-0-2/5-5-0-2-0-2-0-2-0-2/7-7--|


eb|----------------------------------------|
Bb|----------------------------------------|
Gb|---------------------5-5-5-5-----------o|
Db|---------------------5-5-5-5-5-7-5-5-7-o|
Ab|---------------------3-3-3-3-5-7-5-5-7--|
Db|-0-2-0-2-0-2-0-2/5-5---------5-7-5-5-7--|
                                .   . . 

riff 2
eb|-------------------------------------------|
Bb|-------------------------------------------|
Gb|o------------------------------------------|
Db|o-0-2-0-2-0-2-0-2/5-5-0-2-0-2-0-2-0-2/7-7--|
Ab|--0-2-0-2-0-2-0-2/5-5-0-2-0-2-0-2-0-2/7-7--|
Db|--0-2-0-2-0-2-0-2/5-5-0-2-0-2-0-2-0-2/7-7--|

eb|----------------------------------------|
Bb|----------------------------------------|
Gb|---------------------5-5-5-5-----------o|
Db|-0-2-0-2-0-2-0-2/5-5-5-5-5-5-5-7-5-5-7-o|
Ab|-0-2-0-2-0-2-0-2/5-5-3-3-3-3-5-7-5-5-7--|
Db|-0-2-0-2-0-2-0-2/5-5---------5-7-5-5-7--|
                                .   . . 

verse:

riff 3
eb|-0------0---------------|
Bb|---3------3----------0--|
Gb|-----0------2------2----|
Db|---------------3/4------|
Ab|------------------------|
Db|------------------------|

riff 4
eb|------------------------|
Bb|------------------------|
Gb|------------------------|
Db|-7--7-7--7-0--0--0-5-5--|
Ab|-7--7-7--7-0--0--0-5-5--|
Db|-7--7-7--7-0--0--0-5-5--|

pre chorus:

riff 5                                                       \
eb|--------------------------------------------------------| |
Bb|--------------------------------------------------------| |
Gb|-5--5-5--5-5--5-5-5--5--5-5-----------------------------| |
Db|-5--5-5--5-5--5-5-5--5--5-5-7--7-7--7-7--7-7-7--7--7-7--| | 
Ab|-3--3-3--3-3--3-3-3--5--3-3-7--7-7--7-7--7-7-7--7--7-7--| |
Eb|----------------------------7--7-7--7-7--7-7-7--7--7-7--| \
                                                              \two guitars play these riffs
riff 6                                                        /
eb|-----7--------------10------------7---8-7--|              /
Bb|-8--------8----8---------8----8------------|              |
Gb|---9----9---9----9-----9---9----9---9------|              |
Db|-------------------------------------------|              |
Ab|-------------------------------------------|              |
Db|-------------------------------------------|              |
                                                             /
riff 7
eb|--------------|
Bb|--------------|
Gb|--------------|
Db|-2-4-5-7-4-0--|
Ab|-2-4-5-7-4-0--|
Db|-2-4-5-7-4-0--|

chorus:

riff 8                                                           \
eb|------------------------------------------------------------| |
Bb|------------------------------------------------------------| |
Gb|-------------------------------------------5--5--5--5-5--5--| |
Db|-2--2--2--2-2--2--2-2-5--5--5--5-5--5--5-5-5--5--5--5-5--5--| |
Ab|-2--2--2--2-2--2--2-2-5--5--5--5-5--5--5-5-3--3--3--3-3--3--| |
Db|-2--2--2--2-2--2--2-2-5--5--5--5-5--5--5-5------------------| \
                                                                  \two guitars
riff 9                                                            /
eb|------------------------------------------------7---------|   / 
Bb|-------------------------------------------8---------8----|   | 
Gb|-8h9-9-9-99-99--9-9-9-8h9-9-9-99-99--9-9-9----9----9---9--|   | 
Db|----------------------------------------------------------|   |
Ab|----------------------------------------------------------|   |
Db|----------------------------------------------------------|   |
                                                                 /
riff 10
eb|----------------------|
Bb|----------------------|
Gb|----------------------|
Db|-0-2-0-2-0-2-0-2-5-5--|
Ab|-0-2-0-2-0-2-0-2-5-5--|
Db|-0-2-0-2-0-2-0-2-5-5--|

riff 11                                                            \
eb|--------------------------------------------------------------| |
Bb|--------------------------------------------------------------| |
Gb|-------------------------------------------5-5-5-5------------| |
Db|-2--2--2--2-2--2--2-2-5--5--5--5-5--5--5-5-5-5-5-5-5-7-5-5-7--| |
Ab|-2--2--2--2-2--2--2-2-5--5--5--5-5--5--5-5-3-3-3-3-5-7-5-5-7--| |
Db|-2--2--2--2-2--2--2-2-5--5--5--5-5--5--5-5---------5-7-5-5-7--| \
                                                      .   . .       \two guitars
riff 12                                                             /
eb|------------------------------------------------10--------|     /
Bb|-------------------------------------------8---------8----|     |
Gb|-8h9-9-9-99-99--9-9-9-8h9-9-9-99-99--9-9-9----9----9---9--|     |
Db|----------------------------------------------------------|     |
Ab|----------------------------------------------------------|     |
Db|----------------------------------------------------------|     |
                                                                   /

solo:

play riff 1 as an intro for the solo.
then one guitar plays riff 13 while another guitar plays riff 14. 
both riffs are the same length, they just don't look it writen out.

riff 13
eb|-------------------------------------------------------------------------|
Bb|--12------------------------------------12-------------------------------|
Gb|o-14^--14-12~~--12h14p12-----12^-----xx-14^--14-12~~--12h14p12-----------|
Db|o------------------------h14-----14----------------------------14-13/14--|
Ab|-------------------------------------------------------------------------|
Db|-------------------------------------------------------------------------|
                                       
eb|--------------------------------------------------------------------|
Bb|--------------------------------------------------------------------|
Gb|-14-16----14-16-----14-16--17-16-12----14-16----14\9-11-12-14-11-7-o|
Db|-------14--------14-----------------14-------14----x-x--x--x--x--x-o|
Ab|---------------------------------------------------7-9--10-12-9--5--|
Db|--------------------------------------------------------------------|

riff 14
eb|---------------------------------------------------------------|
Bb|---------------------------------------------------------------|
Gb|o--------------------------------------------------------------|
Db|o-0-2-0-2-0-2-0-2/5-5-0-2-0-2-0-2-0-2/7-7-0-2-0-2-0-2-0-2/5-5--|
Ab|--0-2-0-2-0-2-0-2/5-5-0-2-0-2-0-2-0-2/7-7-0-2-0-2-0-2-0-2/5-5--|
Db|--0-2-0-2-0-2-0-2/5-5-0-2-0-2-0-2-0-2/7-7-0-2-0-2-0-2-0-2/5-5--|

eb|--------------------------------------------------------| 
Bb|--------------------------------------------------------| 
Gb|-5--5-5--5-5--5-5-5--5--5-5-----------------------------| 
Db|-5--5-5--5-5--5-5-5--5--5-5-7--7-7--7-7--7-7-7--7--7-7--|  
Ab|-3--3-3--3-3--3-3-3--5--3-3-7--7-7--7-7--7-7-7--7--7-7--| 
Eb|----------------------------7--7-7--7-7--7-7-7--7--7-7--| 

eb|--------------|
Bb|--------------|
Gb|-------------o|
Db|-2-4-5-7-4-0-o|
Ab|-2-4-5-7-4-0--|
Db|-2-4-5-7-4-0--|


All the riffs for the ending of the song are here, so I won't bother 
to type it out.

key:

| o-one riff-o |
| / slide up   |
| \ slide down |
| ^ bend       |
| . palm mute  |
| h hammer on  |
| p pull off   |
| x mute note  |
| ~ vibrato    |

            
            
Suggest correction
Creating personal tab
Creating personal tab
You can edit any tab online and save it as your Personal.

You can edit, replace or remove any tab part or add personal notes – all changes will be seen only by you.

Personal tabs can be accessed anytime from any device, even offline.
Learn more »
Give kudos to tab author, rate the tab!
1 2 3 4 5
comments
print report bad tab
1 comment total.
0 reply
AFTON GUITAR 10 Aug 19, 2007 03:57 PM

this is awful

guest
You may want to rate the tab now too:
select rating
Wanna post a correction for this tab? Suggest correction