Oops, an error
Loading. Please wait.

Im Still Yours Tab

1,499 views 6 this week
no commentswrite comment
1 2 3 4 5
2 more votes to show rating
add to favorites
launch autoscroll
font size
0
reset
how to read this tab
guitar tuner
Autoscroll
slow
fast
+/-
esc
set tempo
stop
Help us to improve Ultimate-Guitar.com Take our survey!
×
Author
Difficulty
intermediate
Song: I'm Still Yours
Artist: Kutless
Album: It Is Well
Tuning: Standard
Note: I show to play the tabbed part of the song through both verses like on 
Kutless' It Is Well record but if proffered I also have the chords written out below.

Intro/Verse 1:
E|-------------------------------------------------------------------------------------------|
B|-------------3-----------------------2-----------------------2------------------3-------3--|
G|-----2---------2----2------------0-----0----0-----------0----0----0--------0-------0-------|
D|---------0--------0---------0h3----------0--------0h3----------0-----0h2-----2h4-----------|
A|--2----------------------------------------------------------------------------------------|
E|--------------------------3-----------------------3----------------------------------------|

(Play Intro through verse 1. Every other time end on this instead of  bold tab)
E|-------------------------------------------------------------------------------|
B|--------3-------3-------3------------------------------------------------------|
G|--0-------0-------0------------------------------------------------------------|
D|-----2-------2-------2---------------------------------------------------------|
A|-------------------------------------------------------------------------------|
E|-------------------------------------------------------------------------------|

Verse 1:
       Bm     G       D
If You washed away my vanity
       Bm   G       D
If You took away my words
   Bm     G         D      A
If all my world was swept away
      Bm     G          D
Would You be enough for me?
         Bm      G           A
Would my beating heart still sing?

Chorus:
     D
If I lost it all
         Bm
Would my hands stay lifted
       G                 A
To the God who gives and takes away
       D
If You take it all
     Bm
This life You've given

G                            A
Still my heart will sing to You  

Intro/Verse 2
(Same as Intro/Verse 1)

Verse 2:
        Bm          G        D
When my life is not what I expected
    Bm      G          D
The plans I made have failed
             Bm      G       D        A
When there's nothing left to steal me away
     Bm     G          D
Will You be enough for me?
        Bm     G           A
Will my broken heart still sing?  

(Chorus)

Bridge:
            Em           D
Even if You take it all away
       G
You'll never let me go
Em          D
Take it all away
      A
But I still know
     Bm  A  D
That I'm Yours
G   A    Bm A G
I'm still Yours
    Bm   A  D
Oh, I....'m Yours
G   A    Bm A G
I'm still Yours

(Intro)     

 I'm still Yours

Finished!
Please feel free to makes corrections or ask questions.
Thanks! Please rate!
Suggest correction
Give kudos to tab author, rate the tab!
1 2 3 4 5
comments
print report bad tab
guest
You may want to rate the tab now too:
select rating
Wanna post a correction for this tab? Suggest correction