Oops, an error
Loading. Please wait.

Legacy tab

version 1
version 1

Whole song

by Kutless
1,376 views 1 this week
4 commentsread comments
1 2 3 4 5
1 last vote to show rating
add to favorites
×
Save as Personal and add changes to this tab that will be seen only by you. Learn more ›
×
You can save this tab as Personal to edit and correct it or add notes. All changes will be seen only by you. Learn more »
launch autoscroll
font size
0
reset
how to read this tab
guitar tuner
edit
Autoscroll
slow
fast
+/-
esc
set tempo
stop
Author
KUTLESS
"LEGACY"

Tabbed by:alex

This is probably my favorite song of the new Kutless cd, and nobody has tabbed it yet. 
here it is. It should be 99.9% perfect.Enjoy.


Tuning:standard


INTRO:
e|-------------------------------------------------------------------------|
B|-------------------------------------------------------------------------|
G|-------------------------------------------------------------------------|
D|-22222222--77-9--77-9--22222222--77-9--22222222--77-9--22222222--77-9----|
A|-22222222--77-9--77-9--22222222--77-9--22222222--77-9--22222222--77-9----|
E|-00000000--55-7--55-7--00000000--55-7--00000000--55-7--00000000--55-7----|
                                                                   PM

Verse:
e|-----------------------------------|---- 
B|-----------------------------------|---- 
G|---------------------------------------- -   -  (Repeat 2x)
D|-22222222-22222222-22222222--77-9--|  -- 
A|-22222222-22222222-22222222--77-9--|---- 
E|-00000000-00000000-00000000--55-7--|---- 
PM *******  *******  *****


PRE-CHORUS:
e|-----------------------|---- 
B|-----------------------|---- 
G|---------------------------- -   -    (Repeat 2x)
D|-7-7777777--9-9999999--|  -- 
A|-7-7777777--9-9999999--|---- 
E|-5-5555555--7-7777777--|---- 


CHORUS:
e|-------------------------------------------------------------------------|
B|-------------------------------------------------------------------------|
G|-66666666-44444444-99999999-----999----66666666-44444444-99999999--------|
D|-66666666-44444444-99999999-999-999-99-66666666-44444444-99999999--------|
A|-44444444-22222222-77777777-999-777-99-44444444-22222222-77777777--------|
E|----------------------------777-----77-----------------------------------|

e|-------------------------------------------------------------------------|
B|-------------------------------------------------------------------------|
G|-----999----66666666-44444444-99999999-666-999---------------------------|
D|-999-999-99-66666666-44444444-99999999-666-999-7777777777777777----------|
A|-999-777-99-44444444-22222222-77777777-444-777-7777777777777777----------|
E|-777-----77------------------------------------5555555555555555----------|

e|-------------------|
B|-------------------|
G|-------------------|
D|-9999999999999999--|
A|-9999999999999999--|
E|-7777777777777777--|

-Repeat INTRO
-Repeat VERSE
-Repeat PRE-CHORUS
-Repeat CHORUS

BRIDGE
e|-------------------------------------------------------------------------|
B|-------------------------------------------------------------------------|
G|-------------------------------------------------------------------------|
D|-11-11-11-11-9999-77777777-99999999-11-11-11-11-11-11-11-11-11-99999999--|
A|-11-11-11-11-9999-77777777-99999999-11-11-11-11-11-11-11-11-11-99999999--|
E|-9--9--9--9--7777-55555555-77777777-9--9--9--9--9--9--9--9--9--77777777--|

e|-------------------------------------------------------------------------|
B|-------------------------------------------------------------------------|
G|-------------------------------------------------------------------------|
D|-11-11-11-11-11-11-11-11-99999999-77777777-------------------------------|
A|-11-11-11-11-11-11-11-11-99999999-77777777-------------------------------|
E|-9--9--9--9--9--9--9--9--77777777-55555555-------------------------------|

e|-------------------------------------------------------------------------|
B|-------------------------------------------------------------------------|
G|--6666666666666666-8888888888888888-9999999999999999-11-11-11-11-11-11-11|
D|-------------------------------------------------------------------------|
A|-------------------------------------------------------------------------|
E|-------------------------------------------------------------------------|

e|---------------------|
B|---------------------|
G|-11-11-11------------|
D|----------77-9--77-9-|
A|----------77-9--77-9-|
E|----------55-7--55-7-|
PM          **    **

-Repeat CHORUS

Ending of last chorus>>>>>>>>>>>>>>>  OUTRO(2x)>>>>>>>>>>>>>>
e|-------------------------------------------------------------------------|
B|-------------------------------------------------------------------------|
G|-------------------------------------------------------------------------|
D|-7777777777777777-9999999999999999--2-222-22-7-777-77-9-999-99999999-----|
A|-7777777777777777-9999999999999999--2-222-22-7-777-77-9-999-99999999-----|
E|-5555555555555555-7777777777777777--0-000-00-5-555-55-7-777-77777777-----|
PM                                    *        *        *

            
            
Suggest correction
Creating personal tab
Creating personal tab
You can edit any tab online and save it as your Personal.

You can edit, replace or remove any tab part or add personal notes – all changes will be seen only by you.

Personal tabs can be accessed anytime from any device, even offline.
Learn more »
Give kudos to tab author, rate the tab!
1 2 3 4 5
comments
print report bad tab
4 comments total. Showing first comments.
0 reply
satch_magic 10 Nov 06, 2006 09:58 AM

are you shure that's legacy? it didn't really sound like it. that it a cool riff though.

0 reply
deckrider 441 Dec 11, 2006 09:40 AM

Thats not Lagacy!!

0 reply
sg4ever 461 Feb 10, 2007 03:34 PM

First of all the tuning is drop C#. Second of all...it just doesn't sound like Legacy. The opening riff you put reminds me of something by the Ramones.

guest
You may want to rate the tab now too:
select rating
Wanna post a correction for this tab? Suggest correction