Oops, an error
Loading. Please wait.

Passion Tab

version 1
version 1

Whole song

by Kutless
2,112 views 1 this week
2 commentsread comments
1 2 3 4 5
2 more votes to show rating
add to favorites
launch autoscroll
font size
0
reset
how to read this tab
guitar tuner
×
Best way to learn
"Passion"
Autoscroll
slow
fast
+/-
esc
set tempo
stop
Author
----------------------------------------------------------------------------
                             Passion - Kutless
----------------------------------------------------------------------------
Tabbed by: Max Andersen
Email: deckrider@hotmail.com
Comments: This a very easy song to play. It was too hard to here the second part in the
verse, so I didn't bother. If anyone wants it e,mail me and I'll try to figure it out
Key:
| /  slide up
| \  slide down
| x  Mute note
Tuning: Drop-Db

riff 1
eb|------------------------------------------------------------------|
Bb|--------0---0------------0---0------------0---0-----------0---0---|
Gb|------0---0------------0---0------------9---9-----------9---9-----|
Db|---10---------------10---------------10--------------10-----------|
Ab|-8------------8--10------------10--0------------0--0------------0-|
Db|------------------------------------------------------------------|

riff 2
eb|---------------------------|
Bb|---------------------------|
Gb|---------------------------|
Db|-7-7--0-0-0--3-3--5-5-5-5/-|
Ab|-7-7--0-0-0--3-3--5-5-5-5/-|
Db|-7-7--0-0-0--3-3--5-5-5-5/-|

riff 3
eb|-----------------------------------------------------------------|
Bb|-----------------------------------------------------------------|
Gb|-----------------------------------------------------------------|
Db|-0--0-0-3--3-3/10-10--10-10-5--5-5-0--0-0-3--3-3/10-10--10-10\x--|
Ab|-0--0-0-3--3-3/10-10--10-10-5--5-5-0--0-0-3--3-3/10-10--10-10\x--|
Db|-0--0-0-3--3-3/10-10--10-10-5--5-5-0--0-0-3--3-3/10-10--10-10\x--|

Intro/bridge:
riff 1 
Verse 1&2:
riff 1 x3
Chorus:
riff 2 x2
repeat
Interlude:
riff 3
Outro:
Play chorus a bunch of times

Thats All
============================================================================
Suggest correction
Give kudos to tab author, rate the tab!
1 2 3 4 5
comments
print report bad tab
2 comments total.
0 reply
aaron_masta 40 Feb 14, 2009 12:16 PM

PERFECT!

0 reply
seraphim 9412 10 Mar 13, 2010 06:10 PM

i think the 2nd guitar on the verse goes like this:
eb|-17-20------------------------------------------------------- |
Bb|-------17-20--------------------------------------15-17------ |
Gb|-------------16-17-19-17-16-17--------------------16-17------ |
Db|-------------------------------17-15-14-17-15-14------------- |
Ab|------------------------------------------------------------- |
Db|------------------------------------------------------------- |
Note: i think this might be correct but check behind me just in case because i could hardly make the last 2 notes out.There is also some thing in the outro but i can't make it out.

guest
You may want to rate the tab now too:
select rating
Wanna post a correction for this tab? Suggest correction